Blink 182 - The Country Song Chords & Tabs

 

The Country Song Chords & Tabs

Blink 182 Chords & Tabs

Version: 1 Type: Tab 0 ratings
1 star 2 stars 3 stars 4 stars 5 stars
comments

The Country Song Tab

Blink 182, The Country Song.
Tabbed by Kornray00@netzero.net.
  
Blink 182 
The Country Song
The Mark, Tom, and Travis Show (The Enema Strikes Back)

Hey fellow guitarists again. This is my fourth tab (wow already??!?) and suprise, suprise, it's a blink tab again. once again, blink tabs are easier, and well, this one is probably wrong. i did it at like 11 PM, so it probably sux (like my other ones :) anyways, have fun with this one, cuz it is a REALLY funny song, although it is kinda short which sux. anyways, drop me a line.
Kornray00@netzero.net


Intro:

Bass Plays...then:
e---------------------------------------------------------------------
B---------------------------------------------------------------------
G---------0-------------0----------0----00----0---00---0---00----0----
D---------2-------------2----------2----22----2---22---2---22----2----
A-----0-3--------0-3-----------0-3---------3---------3---------3---3--
E-0-3--------0-3-----------0-3------------------3--------3------------
[ Tab from: http://www.guitartabs.cc/tabs/b/blink_182/the_country_song_tab.html ]
e--------------------------------------------------
B--------------------------------------------------
G-----------00---0---00---0---00---0---------------
D-----------22---2---22---2---22---2---------------(repeat until lyrics come in)
A-----0-2-3----3--------3--------3---3-------------
E---3--------------3--------3----------------------

Verse:
e--------------------------------------------------
B-------------------------------------------------- 
G-------------------------------------------------- 
D----2---2----2---2----2----2---------------------- 
A--3--------3--------3----------3-----0--2--------- 
E------3--------3---------3--------3---------------

Verse Part 2:
(played during "Well hey now, feels so good...")
e--------------------------------------------------
B--------------------------------------------------
G-33333333333----55555555-5-5-5-5------------------
D-33333333333----55555555-5-5-5-5------------------
A-11111111111----33333333-3-3-3-3----3-------------
E--------------------------------------------------
                                 (Let note ring, then lead into Dammit) 
:: Ultimate Guitar Archive :: 
http://www.ultimate-guitar.com 

Comments