Blink 182 - Story Of A Lonely Guy Chords & Tabs

 

Story Of A Lonely Guy Chords & Tabs

Blink 182 Chords & Tabs

Version: 17 Type: Tab 0 ratings
1 star 2 stars 3 stars 4 stars 5 stars
comments

Story Of A Lonely Guy Tab

   
                              STORY OF A LONELY GUY
                            As recorded by Blink-182
              (From the 2001 Album TAKE OFF YOUR PANTS AND JACKET)

Words and Music by Tom DeLonge, Mark Hoppus, and Travis Barker
Arranged by Lee Howard
Transcribed by Lee Howard

Gtr I (E A D G B E) - 'Tom Clean 1 (chorus and delay)'
Gtr II (E A D G B E) - 'Tom Clean 2 (chorus and delay)'
Gtr III (E A D G B E) - 'Tom Distortion'
Gtr IV (E A D G B E) - 'Vocals'
From the tab book....

    Moderately Q=152
   4/4
    Gtr I
    E E E E E E E E   E E E E E E E E   E E E E E E E E   E E E E E E E E
||--0-0-0-5-5-5-7-7-|-7-7-7-7-7-7-7-7-|-0-0-0-5-5-5-7-7-|-7-5-5-5-5-5-5-5--|
||o-----------------|-----------------|-----------------|------------------|
||------------------|-----------------|-----------------|------------------|
||------------------|-----------------|-----------------|------------------|
||o-----------------|-----------------|-----------------|------------------|
||------------------|-----------------|-----------------|------------------|
|
|   Gtr II
|   Q   E E E E E E   E E E E E E E E   E E E E E E E E   Q   E E E E Q
||------------------|-----------------|-----------------|------------------|
||o-----------------|-----------------|-----------------|------------------|
||------9---9---9---|-----9---9---9---|-----6---6---6---|-----2---4---6----|
||--7-----7---7---7-|-9-9---9---9---9-|-4-4---4---4---4-|-0-----0---0------|
||o-----------------|-----------------|-----------------|------------------|
||------------------|-----------------|-----------------|------------------|


  E E E E E E E E   E E E E E E E E   E E E E E E E E   E E E E E E E E
|-0-0-0-5-5-5-7-7-|-7-7-7-7-7-7-7-7-|-0-0-0-5-5-5-7-7-|-7-5-5-5-5-5-5-5--||
|-----------------|-----------------|-----------------|------------------||
|-----------------|-----------------|-----------------|------------------||
|-----------------|-----------------|-----------------|------------------||
|-----------------|-----------------|-----------------|------------------||
|-----------------|-----------------|-----------------|------------------||
|
| E E E E E E E E   E E E E E E E E   E E E E E E E E   E E E E E E E E
|-----------------|-----------------|-----------------|------------------||
|-----------------|-----------------|-----------------|------------------||
|-----9---9---9---|-----9---9---9---|-----6---6---6---|-----2---4---6----||
|-7-7---7---7---7-|-9-9---9---9---9-|-4-4---4---4---4-|-0-0---0---0---0--||
|-----------------|-----------------|-----------------|------------------||
|-----------------|-----------------|-----------------|------------------||


  Gtr IV
  H       E Q   E   +Q    Q   Q   E  E
|-----------------|--------------------|
|-----------------|--------------------|
|---------------6-|-(6)----------------|
|---------7-9-----|-----------7---9-11-|
|-----------------|--------------------|
|-----------------|--------------------|
|
|                    >
| W                 +W
|-5---------------|-(5)----------------|
|-----------------|--------------------|
|-----------------|--------------------|
|-----------------|--------------------|
|-----------------|--------------------|
|-----------------|--------------------|
|
| Gtr III
| PM------------------------------------
| E E E E E E E E    E  E E E E E E  E
|-----------------|--------------------|
|-----------------|--------------------|
|-----------------|--------------------|
|-----------------|--------------------|
|-0-0-0-0-0-0-0-0-|--2--2-2-2-2-2-2--2-|
|-----------------|--------------------|


   +E  E E E Q   E E   +E  Q   E Q   E E
|--------------------|--------------------|
|--------------------|--------------------|
|----------------6-7-|-(7)----------------|
|-(11)-7---7-7-------|-----7-----7---9-7--|
|--------------------|--------------------|
|--------------------|--------------------|
|
|   W                   W
|--------------------|--------------------|
|--------------------|--------------------|
|--------------------|--------------------|
|--------------------|--------------------|
|--------------------|--------------------|
|--------------------|--------------------|
|
|--------------------------------------|
|   E  E E E E E E E    E  E E E E E E E
|--------------------|--------------------|
|--------------------|--------------------|
|--------------------|--------------------|
|--------------------|--------------------|
|---4--4-4-4-4-4-4-4-|--5--5-5-5-5-5-5-5--|
|--------------------|--------------------|


  +Q    E E Q   E  E    +E  E E E Q   E  E
|--------------------|---------------------|
|--------------------|---------------------|
|--------------------|---------------------|
|-(7)-----7-7---9-11-|-(11)-----9-7---9-11-|
|--------------------|---------------------|
|--------------------|---------------------|
|
| Gtr III
|  PM---------------------------------------
|  E  E E E E E E  E     E  E E E E E E  E
|--------------------|---------------------|
|--------------------|---------------------|
|--------------------|---------------------|
|--------------------|---------------------|
|--0--0-0-0-0-0-0--0-|---2--2-2-2-2-2-2--2-|
|--------------------|---------------------|


   +E  Q   E Q   E  E    +E  Q   E Q   E E
|---------------------|---------------------|
|---------------------|---------------------|
|---------------------|---------------------|
|-(11)-7-----7---9-11-|-(11)-7---7-7---9-7--|
|---------------------|---------------------|
|---------------------|---------------------|
|
|----------------------------------------|
|   E  E E E E E E  E     E  E E E E E E E
|---------------------|---------------------|
|---------------------|---------------------|
|---------------------|---------------------|
|---------------------|---------------------|
|---4--4-4-4-4-4-4--4-|---5--5-5-5-5-5-5-5--|
|---------------------|---------------------|


  +Q    E E Q   E E   +Q    Q   E Q   E
|-------------------|-------------------|
|-------------------|-------------------|
|-----------9---6-7-|-(7)---7---------6-|
|-(7)-----7-7---7-7-|-(7)---7---7-9---7-|
|-------------------|-----------7-9-----|
|-------------------|-------------------|
|
|  PM------------------------------------
|  E  E E E E E E E    E  E E E E E E E
|-------------------|-------------------|
|-------------------|-------------------|
|-------------------|-------------------|
|-------------------|-------------------|
|--0--0-0-0-0-0-0-0-|--2--2-2-2-2-2-2-2-|
|-------------------|-------------------|


  +Q    Q   Q   E  E    +E  E E E Q   E E
|--------------------|---------------------|
|--------------------|---------------------|
|-(6)----------------|---------------------|
|-(7)-------7---9-11-|-(11)-7-7-7-7---9-7--|
|--------------------|---------------------|
|--------------------|---------------------|
|
|---------------------------------------|
|  E  E E E E E E  E     E  E E E E E E E
|--------------------|---------------------|
|--------------------|---------------------|
|--------------------|---------------------|
|--------------------|---------------------|
|--4--4-4-4-4-4-4--4-|---5--5-5-5-5-5-5-5--|
|--------------------|---------------------|


  +Q    E E Q   E  E    +E  Q   E Q   E  E
|--------------------|---------------------|
|--------------------|---------------------|
|--------------------|---------------------|
|-(7)-----7-7---9-11-|-(11)-7---7-7---9-11-|
|--------------------|---------------------|
|--------------------|---------------------|
|
|  PM---------------------------------------
|  E  E E E E E E  E     E  E E E E E E  E
|--------------------|---------------------|
|--------------------|---------------------|
|--------------------|---------------------|
|--------------------|---------------------|
|--0--0-0-0-0-0-0--0-|---2--2-2-2-2-2-2--2-|
|--------------------|---------------------|


   +E  Q   E Q   E  E    +E  Q   E Q   E E
|---------------------|---------------------|
|---------------------|---------------------|
|---------------------|---------------------|
|-(11)-7-----7---9-11-|-(11)-7---6-7---9-7--|
|---------------------|---------------------|
|---------------------|---------------------|
|
|----------------------------------------|
|   E  E E E E E E  E     E  E E E E E E E
|---------------------|---------------------|
|---------------------|---------------------|
|---------------------|---------------------|
|---------------------|---------------------|
|---4--4-4-4-4-4-4--4-|---5--5-5-5-5-5-5-5--|
|---------------------|---------------------|


  +Q     Q   H         E E Q   H         E E Q   H         E E E E Q   E E
|--------------------|-----------------|-----------------|------------------|
|--------------------|-----------------|-----------------|------------------|
|--9--9--------------|-7-7-9-----------|-6-6-7-----------|-4-4-6---4---4----|
|-(7)---11-----------|-----------------|-----------------|-------7-7-----7--|
|--------------------|-----------------|-----------------|------------------|
|--------------------|-----------------|-----------------|------------------|
|  E  E  Q   H
|
| Gtr I
|  E  E  E E E E E E   E E E E E E E E   Q   E E E E E E   E E E E E E E E
|--------------------|-----------------|-----------------|------------------|
|--------------------|-----------------|-----------------|------------------|
|--------2-------2---|-----2-------2---|-----2-------2---|-----2-------2----|
|--------------------|-0-0---0-0-0---0-|-----------------|-2-2---2-2-2---2--|
|--4--4----4-4-4---4-|-----------------|-0-----0-0-0---0-|------------------|
|--------------------|-----------------|-----------------|------------------|


  +Q     Q   H         E E Q   H         E E Q   H         E E E E  H
|--------------------|-----------------|-----------------|--------------------||
|--------------------|-----------------|-----------------|--------------------||
|--9--9--------------|-7-7-9-----------|-6-6-7-----------|-4-4-6--------------||
|-(7)---11-----------|-----------------|-----------------|----------7---------||
|--------------------|-----------------|-----------------|--------------------||
|--------------------|-----------------|-----------------|--------------------||
|  E  E  Q   H
|
|  E  E  E E E E E E   E E E E E E E E   Q   E E E E E E   E E E E  E  E E E
|--------------------|-----------------|-----------------|--------------------||
|--------------------|-----------------|-----------------|--------------------||
|--------2-------2---|-----2-------2---|-----2-------2---|-----2---------2----||
|--------------------|-0-0---0-0-0---0-|-----------------|-2-2---2--2--2---2--||
|--4--4----4-4-4---4-|-----------------|-0-----0-0-0---0-|--------------------||
|--------------------|-----------------|-----------------|--------------------||
|
| Gtr III
|                                                                   TP
|  W                   W                 W                 H        H
|--------------------|-----------------|-----------------|--------------------||
|--------------------|-----------------|-----------------|--------------------||
|--------------------|-----------------|-----------------|---------^x\--------||
|--------------------|-----------------|-----------------|---------^x\--------||
|--------------------|-----------------|-----------------|---------^x\--------||
|--------------------|-----------------|-----------------|--------------------||


  Q   Q   Q   Q     Q    Q    Q   Q     Q   Q   Q   Q     Q   E E Q   E E
|-----------------|-------------------|-----------------|------------------|
|-----5---5---5---|-5---(5)-------3---|-5---5---2---3---|-3----------------|
|-----6---6---6---|-7p===6----6---4---|-6---6---2---2---|-2---4---2---4----|
|-----------------|-----------7-------|-----------------|------------------|
|-----------------|-------------------|-----------------|------------------|
|-----------------|-------------------|-----------------|------------------|
|
| Gtr III
| E E E E E E E E   E E  E  E E E E E   E E E E E E E E   E E E E E E E E
|-----------------|-------------------|-----------------|------------------|
|-----------------|-------------------|-----------------|------------------|
|-----------------|-4-4--4--4-4-4-4-4-|-----------------|------------------|
|-2-2-2-2-2-2-2---|-2-2--2--2-2-2-2-2-|-----------------|-7-7-7-7-7-7-7-7--|
|-0-0-0-0-0-0-0---|-------------------|-4-4-4-4-4-4-4-4-|-5-5-5-5-5-5-5-5--|
|---------------2-|-------------------|-2-2-2-2-2-2-2-2-|------------------|


  Q   Q   Q   Q     Q    Q    Q   Q     Q   Q   Q   Q     Q   E E Q   E E
|-----------------|-------------------|-----------------|------------------|
|-----5---5---5---|-5---(5)-------3---|-5---5---5---3---|------------------|
|-----6---6---6---|-7p===6----6---4---|-6-------2---2---|-2---4---2---4----|
|-----------------|-----------7-------|-----------------|------------------|
|-----------------|-------------------|-----------------|------------------|
|-----------------|-------------------|-----------------|------------------|
|
| E E E E E E E E   E E  E  E E E E E   E E E E E E E E   E E E E E E E E
|-----------------|-------------------|-----------------|------------------|
|-----------------|-------------------|-----------------|------------------|
|-----------------|-4-4--4--4-4-4-4-4-|-----------------|------------------|
|-2-2-2-2-2-2-2---|-2-2--2--2-2-2-2-2-|-----------------|-7-7-7-7-7-7-7-7--|
|-0-0-0-0-0-0-0---|-------------------|-4-4-4-4-4-4-4-4-|-5-5-5-5-5-5-5-5--|
|---------------2-|-------------------|-2-2-2-2-2-2-2-2-|------------------|

[ Tab from: http://www.guitartabs.cc/tabs/b/blink_182/story_of_a_lonely_guy_tab_ver_17.html ]
  Q   Q   Q   Q     Q   Q   H         Q   Q   Q   Q     Q   Q   H
|-----------------|-----------------|-----------------|------------------|
|-----5-------5---|-5---5---5-------|-----5---5---5---|-5---7---3--------|
|-----6---6---6---|-7---6---2-------|-----6---2---6---|-7---6---2--------|
|---------7-------|-----------------|-----------------|------------------|
|-----------------|-----------------|-----------------|------------------|
|-----------------|-----------------|-----------------|------------------|
|
| E E E E E E E E   E E E E E E E E   E E E E E E E E   E E E E E E E E
|-----------------|-----------------|-----------------|------------------|
|-----------------|-----------------|-----------------|------------------|
|-----------------|-4-4-4-4-4-4-4-4-|-----------------|------------------|
|-2-2-2-2-2-2-2---|-2-2-2-2-2-2-2-2-|-----------------|-7-7-7-7-7-7-7-7--|
|-0-0-0-0-0-0-0---|-----------------|-4-4-4-4-4-4-4-4-|-5-5-5-5-5-5-5-5--|
|---------------2-|-----------------|-2-2-2-2-2-2-2-2-|------------------|


  Q   Q   Q   Q     Q   Q   Q   Q     Q   Q   Q   Q     H       H
|-----------------|-----------------|-----------------|-------------------||
|-----------------|-----------------|-----------------|------------------o||
|-----6-------6---|-7---6-------4---|-6---------------|-------------------||
|---------7-------|---------7-------|-----7---7---7---|-7-----------------||
|-----------------|-----------------|-----------------|------------------o||
|-----------------|-----------------|-----------------|-------------------||
|
| E E E E E E E E   E E E E E E E E   E E E E E E E E   E E E E E E E E
|-----------------|-----------------|-----------------|-------------------||
|-----------------|-----------------|-----------------|------------------o||
|-----------------|-4-4-4-4-4-4-4-4-|-----------------|-------------------||
|-2-2-2-2-2-2-2---|-2-2-2-2-2-2-2-2-|-----------------|-7-7-7-7-7-7-7-7---||
|-0-0-0-0-0-0-0---|-----------------|-4-4-4-4-4-4-4-4-|-5-5-5-5-5-5-5-5--o||
|---------------2-|-----------------|-2-2-2-2-2-2-2-2-|-------------------||


  Gtr III
  >
  W                 +W                  E E E E E E E E   E E E E E E E E
|-----------------|-------------------|-----------------|------------------|
|-----------------|-------------------|-----------------|------------------|
|-----------------|-------------------|-9-9-9-9-9-9-9-9-|-9-9-9-9-9-9-9-9--|
|-7---------------|-(7)---------------|-9-9-9-9-9-9-9-9-|-9-9-9-9-9-9-9-9--|
|-x---------------|-------------------|-7-7-7-7-7-7-7-7-|-7-7-7-7-7-7-7-7--|
|-5---------------|-(5)---------------|-----------------|------------------|
|
| Gtr I
| E E E E E E E E    E  E E E E E E E   W                 W
|-----------------|-------------------|-----------------|------------------|
|-----------------|-------------------|-----------------|------------------|
|-----2-------2---|-------2-------2---|-----------------|------------------|
|-----------------|--0--0---0-0-0---0-|-----------------|------------------|
|-4-4---4-4-4---4-|-------------------|-----------------|------------------|
|-----------------|-------------------|-----------------|------------------|


  W                 W                 E E E E E E E E   E E E E E E E E
|-----------------|-----------------|-----------------|------------------|
|-----------------|-----------------|-----------------|------------------|
|-----------------|-----------------|-9-9-9-9-9-9-9-9-|-9-9-9-9-9-9-9-9--|
|-----------------|-----------------|-9-9-9-9-9-9-9-9-|-9-9-9-9-9-9-9-9--|
|-----------------|-----------------|-7-7-7-7-7-7-7-7-|-7-7-7-7-7-7-7-7--|
|-----------------|-----------------|-----------------|------------------|
|
| E E E E E E E E   E E E E E E E E   W                 W
|-----------------|-----------------|-----------------|------------------|
|-----------------|-----------------|-----------------|------------------|
|-----2-------2---|-----2-------2---|-----------------|------------------|
|-----------------|-0-0---0-0-0---0-|-----------------|------------------|
|-4-4---4-4-4---4-|-----------------|-----------------|------------------|
|-----------------|-----------------|-----------------|------------------|


  Gtr I
  E E E E E E E E   E E E E E E E E   E E E E E E E E
|-----------------|-----------------|-----------------|
|-----------------|-----------------|-----------------|
|-----2-------2---|-----2-------2---|-----2-------2---|
|-----------------|-0-0---0-0-0---0-|-2-2---2-2-2---2-|
|-4-4---4-4-4---4-|-----------------|-----------------|
|-----------------|-----------------|-----------------|


  E E E E E E E E   E E E E E E E E   E E E E E E E E
|-----------------|-----------------|-----------------||
|-----------------|-----------------|-----------------||
|-----2-------2---|-----2-------2---|-----2-------2---||
|-2-2---2-2-2---2-|-----------------|-0-0---0-0-0---0-||
|-----------------|-4-4---4-4-4---4-|-----------------||
|-----------------|-----------------|-----------------||


  Gtr IV
  E E  Q   H         E E Q   H         E E Q   H         E E E E H
|------------------|-----------------|-----------------|------------------|
|------------------|-----------------|-----------------|------------------|
|-9-9--------------|-7-7-9-----------|-6-6-7-----------|-4-4-6---2--------|
|-----11-----------|-----------------|-----------------|------------------|
|------------------|-----------------|-----------------|------------------|
|------------------|-----------------|-----------------|------------------|
|
| Gtr III
| E E  E E E E E E   E E E E E E E E   E E E E E E E E   E E E E E E E E
|------------------|-----------------|-----------------|------------------|
|------------------|-----------------|-----------------|------------------|
|------------------|-4-4-4-4-4-4-4-4-|-----------------|------------------|
|-2-2--2-2-2-2-2---|-2-2-2-2-2-2-2-2-|-----------------|-7-7-7-7-7-7-7-7--|
|-0-0--0-0-0-0-0---|-----------------|-4-4-4-4-4-4-4-4-|-5-5-5-5-5-5-5-5--|
|----------------2-|-----------------|-2-2-2-2-2-2-2-2-|------------------|


  E E  Q   H         E E Q   H         E E Q   H         E E E E H
|------------------|-----------------|-----------------|------------------|
|------------------|-----------------|-----------------|------------------|
|-9-9--------------|-7-7-9-----------|-6-6-7-----------|-4-4-6---2--------|
|-----11-----------|-----------------|-----------------|------------------|
|------------------|-----------------|-----------------|------------------|
|------------------|-----------------|-----------------|------------------|
|
| E E  E E E E E E   E E E E E E E E   E E E E E E E E   E E E E E E E E
|------------------|-----------------|-----------------|------------------|
|------------------|-----------------|-----------------|------------------|
|------------------|-4-4-4-4-4-4-4-4-|-----------------|------------------|
|-2-2--2-2-2-2-2---|-2-2-2-2-2-2-2-2-|-----------------|-7-7-7-7-7-7-7-7--|
|-0-0--0-0-0-0-0---|-----------------|-4-4-4-4-4-4-4-4-|-5-5-5-5-5-5-5-5--|
|----------------2-|-----------------|-2-2-2-2-2-2-2-2-|------------------|


  Q   Q   Q   Q      Q    Q   Q   Q     Q   Q   Q   Q     Q   E E Q   E E
|-----------------|-------------------|-----------------|------------------|
|-5---5---5---5---|-(5)-------3---5---|-5---2---3---3---|------------------|
|-6---6---6---7p==|==6----6---4---6---|-6---2---2---2---|-2---4---2---4----|
|-----------------|-------7-----------|-----------------|------------------|
|-----------------|-------------------|-----------------|------------------|
|-----------------|-------------------|-----------------|------------------|
|
| E E E E E E E E    E  E E E E E E E   E E E E E E E E   E E E E E E E E
|-----------------|-------------------|-----------------|------------------|
|-----------------|-------------------|-----------------|------------------|
|-----------------|--4--4-4-4-4-4-4-4-|-----------------|------------------|
|-2-2-2-2-2-2-2---|--2--2-2-2-2-2-2-2-|-----------------|-7-7-7-7-7-7-7-7--|
|-0-0-0-0-0-0-0---|-------------------|-4-4-4-4-4-4-4-4-|-5-5-5-5-5-5-5-5--|
|---------------2-|-------------------|-2-2-2-2-2-2-2-2-|------------------|


  Q   Q   Q   Q     Q    Q    Q   Q     Q   Q   Q   Q     Q   E E Q   E E
|-----------------|-------------------|-----------------|------------------|
|-----5---5---5---|-5---(5)-------3---|-5---5---5---3---|------------------|
|-----6---6---6---|-7p===6----6---4---|-6-------2---2---|-2---4---2---4----|
|-----------------|-----------7-------|-----------------|------------------|
|-----------------|-------------------|-----------------|------------------|
|-----------------|-------------------|-----------------|------------------|
|
| E E E E E E E E   E E  E  E E E E E   E E E E E E E E   E E E E E E E E
|-----------------|-------------------|-----------------|------------------|
|-----------------|-------------------|-----------------|------------------|
|-----------------|-4-4--4--4-4-4-4-4-|-----------------|------------------|
|-2-2-2-2-2-2-2---|-2-2--2--2-2-2-2-2-|-----------------|-7-7-7-7-7-7-7-7--|
|-0-0-0-0-0-0-0---|-------------------|-4-4-4-4-4-4-4-4-|-5-5-5-5-5-5-5-5--|
|---------------2-|-------------------|-2-2-2-2-2-2-2-2-|------------------|


  Q   Q   Q   Q     Q   Q   H         Q   Q   Q   Q     Q   Q   H
|-----------------|-----------------|-----------------|------------------|
|-----5-------5---|-5---5---5-------|-----5---5---5---|-5---7---3--------|
|-----6---6---6---|-7---6---2-------|-----6---2---6---|-7---6---2--------|
|---------7-------|-----------------|-----------------|------------------|
|-----------------|-----------------|-----------------|------------------|
|-----------------|-----------------|-----------------|------------------|
|
| Gtr I
| E E E E E E E E   E E E E E E E E   E E E E E E E E   E E E E E E E E
|-0-0-0-5-5-5-7-7-|-7-7-7-7-7-7-7-7-|-0-0-0-5-5-5-7-7-|-7-5-5-5-5-5-5-5--|
|-----------------|-----------------|-----------------|------------------|
|-----------------|-----------------|-----------------|------------------|
|-----------------|-----------------|-----------------|------------------|
|-----------------|-----------------|-----------------|------------------|
|-----------------|-----------------|-----------------|------------------|
|
| Gtr III
| E E E E E E E E   E E E E E E E E   E E E E E E E E   E E E E E E E E
|-----------------|-----------------|-----------------|------------------|
|-----------------|-----------------|-----------------|------------------|
|-----------------|-4-4-4-4-4-4-4-4-|-----------------|------------------|
|-2-2-2-2-2-2-2---|-2-2-2-2-2-2-2-2-|-----------------|-7-7-7-7-7-7-7-7--|
|-0-0-0-0-0-0-0---|-----------------|-4-4-4-4-4-4-4-4-|-5-5-5-5-5-5-5-5--|
|---------------2-|-----------------|-2-2-2-2-2-2-2-2-|------------------|


  Q   Q   Q   Q     Q   Q   Q   Q     Q   Q   Q   Q
|-----------------|-----------------|-----------------|
|-----------------|-----------------|-----------------|
|-----6-------6---|-7---6-------4---|-6---------------|
|---------7-------|---------7-------|-----7---7---7---|
|-----------------|-----------------|-----------------|
|-----------------|-----------------|-----------------|
|
| E E E E E E E E   E E E E E E E E   E E E E E E E E
|-0-0-0-5-5-5-7-7-|-7-7-7-7-7-7-7-7-|-0-0-0-5-5-5-7-7-|
|-----------------|-----------------|-----------------|
|-----------------|-----------------|-----------------|
|-----------------|-----------------|-----------------|
|-----------------|-----------------|-----------------|
|-----------------|-----------------|-----------------|
|
| E E E E E E E E   E E E E E E E E   E E E E E E E E
|-----------------|-----------------|-----------------|
|-----------------|-----------------|-----------------|
|-----------------|-4-4-4-4-4-4-4-4-|-----------------|
|-2-2-2-2-2-2-2---|-2-2-2-2-2-2-2-2-|-----------------|
|-0-0-0-0-0-0-0---|-----------------|-4-4-4-4-4-4-4-4-|
|---------------2-|-----------------|-2-2-2-2-2-2-2-2-|


  Gtr IV
  H       H         H        H        H.      Q     W
|----------------|------------------|------------|--------*|
|----------------|------------------|------------|--------*|
|-7-------6------|--7--------6------|-2----------|--------*|
|----------------|------------------|------------|--------*|
|----------------|------------------|------------|--------*|
|----------------|------------------|------------|--------*|
|
| Gtr I
| E E Q.    E Q    +E  E Q.    E Q    W            +W
|-7-5-5-----5-5--|-(5)-5-5-----5-5--|-5----------|-(5)----*|
|----------------|------------------|------------|--------*|
|----------------|------------------|------------|--------*|
|----------------|------------------|------------|--------*|
|----------------|------------------|------------|--------*|
|----------------|------------------|------------|--------*|
|
| Gtr III
| E E Q.    E Q    +E  E Q.    E Q    W            +W
|----------------|------------------|------------|--------*|
|----------------|------------------|------------|--------*|
|-----------7-7--|-(7)-7-7-----7-7--|------------|--------*|
|-7-7-7-----7-7--|-(7)-7-7-----7-7--|-2----------|-(2)----*|
|-5-5-5-----5-5--|-(5)-5-5-----5-5--|-0----------|-(0)----*|
|----------------|------------------|------------|--------*|


Duration Legend
---------------
W - whole; H - half; Q - quarter; E - 8th; S - 16th; T - 32nd; X - 64th; a - acciaccatura
+ - note tied to previous; . - note dotted; .. - note double dotted
Uncapitalized letters represent notes that are staccato (1/2 duration)
Irregular groupings are notated above the duration line
Duration letters will always appear directly above the note/fret number it represents the
duration for.  Duration letters with no fret number below them represent rests.  Multi-
bar rests are notated in the form Wxn, where n is the number of bars to rest for.  Low
melody durations appear below the staff

Tablature Legend
----------------
 h   - hammer-on
 p   - pull-off
 b   - bend
 pb  - pre-bend
 r   - bend release (if no number after the r, then release immediately)
 /\  - slide into or out of (from/to "nowhere")
 s   - legato slide
 S   - shift slide
  - natural harmonic
[n]  - artificial harmonic
n(n) - tapped harmonic
 ~   - vibrato
 tr  - trill
 T   - tap
 TP  - trem. picking
 PM  - palm muting
\n/  - tremolo bar dip; n = amount to dip
 \n  - tremolo bar down
 n/  - tremolo bar up
/n\  - tremolo bar inverted dip
 =   - hold bend; also acts as connecting device for hammers/pulls
 <>  - volume swell (louder/softer)
 x   - on rhythm slash represents muted slash
 o   - on rhythm slash represents single note slash

Misc Legend
-----------
 |  - bar
||  - double bar
||o - repeat start
o|| - repeat end
*|  - double bar (ending)
 :  - bar (freetime)
 $  - Segno
 &  - Coda
Tempo markers -  = BPM(8/16=s8/s16), where s8 = swing 8ths, s16 = swing 16ths


***************************************************************************************
* Generated using Power Tab Editor by Brad Larsen - http://powertab.guitarnetwork.org *
***************************************************************************************
Comments