Blink 182 - Story Of A Lonely Guy Chords & Tabs

 

Story Of A Lonely Guy Chords & Tabs

Blink 182 Chords & Tabs

Version: 15 Type: Tab 0 ratings
1 star 2 stars 3 stars 4 stars 5 stars
comments

Story Of A Lonely Guy Tab

Artist  Blink 182
Song  Story Of A Lonely Guy
Album  Take Off Your Pants And Jacket
Tabbed By  Christopher Baudains

Tuning: Standard

Intro

E--------------------------------------------------------------------------------------------------|
B----------10-10-10-12-12-12-12-12-12-12-12-12-12-------10-10-10--12-12-12--10-10-10-10-10-10-10-10|
G-9-9-9----------------------------------------------------9-9-9-----------------------------------|x2
D--------------------------------------------------------------------------------------------------|
A--------------------------------------------------------------------------------------------------|
E--------------------------------------------------------------------------------------------------|


Verse (Palm Muted)

E ----------------------------------------------------------------------------|
B ----------------------------------------------------------------------------|
G -------------------------------------------6-6-6-6-6-6-6-6--7-7-7-7-7-7-7-7-| x4
D -7-7-7-7-7-7-7-7--9-9-9-9-9-9-9-9--6-6-6-6-6-6-6-6--7-7-7-7-7-7-7-7---------|
A -7-7-7-7-7-7-7-7--9-9-9-9-9-9-9-9--4-4-4-4-4-4-4-4--5-5-5-5-5-5-5-5---------|
E -5-5-5-5-5-5-5-5--7-7-7-7-7-7-7-7-------------------------------------------|

Pre-Chorus

E -------------------------------------------------------------------------|
B -------------------------------------------------------------------------|
G -------------------------------------------------------------------------| x2
D -------7-------7--------7-------7--------7--------7--------7-------7-----|
A -4-4-----4-4-----5-5-----5-5------------------------7-7-----7-7----------|
E -------------------------------------5-5------5-5------------------------|

Chorus
[ Tab from: http://www.guitartabs.cc/tabs/b/blink_182/story_of_a_lonely_guy_tab_ver_15.html ]
E --------------------------------------------------------------------------------------|
B --------------------------------------------------------------------------------------|
G ----------------------9-9-9-9-9-9-9-9-----------------------7-7-7-7-7-7-7-7-|   x 4---|
D -7-7-7-7-7-7-7-7--9-9-9-9-9-9-9-9--4-4-4-4-4-4-4-4--7-7-7-7-7-7-7-7-------------------|
A -7-7-7-7-7-7-7-7--7-7-7-7-7-7-7-7--4-4-4-4-4-4-4-4--5-5-5-5-5-5-5-5-------------------|
E -5-5-5-5-5-5-5-5-----------------------2-2-2-2-2-2-2-2--------------------------------|

Bridge

E -------------------------------------------------------------------------------|
B -------------------------------------------------------------------------------|
G -------------------------------------------------------------------------------|
D -------7-------7--------7-------7--9-9-9-9-9-9-9-9-9-9-9-9-9-9-9-9-------------|
A -4-4-----4-4-----5-5-----5-5-----9-9-9-9-9-9-9-9-9-9-9-9-9-9-9-9---------------|
E -------------------------------------7-7-7-7-7-7-7-7-7-7-7-7-7-7-7-7-----------|

E -------------------------------------------------------------------------------|
B -------------------------------------------------------------------------------|
G -------------------------------------------------------------------------------|
D -------7-------7--------7-------7--9-9-9-9-9-9-9-9-9-9-9-9-9-9-9-9-------------|
A -4-4-----4-4-----5-5-----5-5-----9-9-9-9-9-9-9-9-9-9-9-9-9-9-9-9---------------|
E -------------------------------------7-7-7-7-7-7-7-7-7-7-7-7-7-7-7-7-----------|

E----------------------------------------------------------------------------------------------------|
B----------------------------------------------------------------------------------------------------|
G----------------------------------------------------------------------------------------------------|
D-------7-------7--------7-------7--------7------7--------7-------7--------7-------7--------7-------7|
A-4-4-----4-4-----5-5-----5-5-----7-7----7-7-----7-7-----7-7-----4-4-----4-4-----5-5-----5-5---------|
E----------------------------------------------------------------------------------------------------|

Song Order

Intro x 2  Verse x 4  Pre-Chorus x 2  Chorus x 4  Intro x 2  Verse x 4 
Pre-Chorus x 2  Chorus x 4  Bridge  Chorus x 6.
Comments