Blink 182 - Story Of A Lonely Guy Chords & Tabs

 

Story Of A Lonely Guy Chords & Tabs

Blink 182 Chords & Tabs

Version: 11 Type: Tab 0 ratings
1 star 2 stars 3 stars 4 stars 5 stars
comments

Story Of A Lonely Guy Tab

                        BLINK 182
                  STORY OF A LONELY GUY
                     CORRECT VERSION
                 STRAIGHT OUT OF THE BOOK


By Slipknot #7

Tuning Standard

INTRO

w/chorus&delay
let ring thoughout
-----------------------------------------------------------
--------10-10-10--12-12-12-12-12-12-12-12-12-12------------
--9-9-9----------------------------------------------------
-----------------------------------------------------------
-----------------------------------------------------------
-----------------------------------------------------------

-----------------------------------------------------------
--------10-10-10--12-12-12-10-10-10-10-10-10-10------------
--9-9-9----------------------------------------------------
-----------------------------------------------------------
-----------------------------------------------------------
-----------------------------------------------------------


VERSE

PM--------------------------------------------------------|
----------------------------------------------------------
----------------------------------------------------------
----------------------------------------------------------
----------------------------------------------------------
---0-0-0-0-0-0-0-0---2-2-2-2-2-2-2-2---4-4-4-4-4-4-4-4-4--
----------------------------------------------------------

PM----------------|
-----------------------------------------------------------
-----------------------------------------------------------
-----------------------------------------------------------
-----------------------------------------------------------
---5-5-5-5-5-5-5-------------------------------------------
-----------------------------------------------------------



PRE-CHORUS


----------------------------|------------------------------
----------------------------|-------2-----------2----------
--------2-----------2-------|-0--0-----0--0--0-----0-------
----------------------------|------------------------------
-4--4-----4--4--4------4----|------------------------------
----------------------------|------------------------------


----------------------------|------------------------------
----------------------------|-------2-----------2----------
-------2-------------2------|-2--2-----2--2--2-----2-------
----------------------------|------------------------------
-0---------0--0--0------0---|------------------------------
----------------------------|------------------------------


CHORUS


--------------------------|--------------------------------
--------------------------|--------------------------------
--------------------------|--4--4--4--4--4--4--4--4--------
--2--2--2--2--2--2--2-----|--2--2--2--2--2--2--2--2--------
--0--0--0--0--0--0--0-----|--------------------------------
-----------------------2--|--------------------------------
                      *thumb on 6th string

[ Tab from: http://www.guitartabs.cc/tabs/b/blink_182/story_of_a_lonely_guy_tab_ver_11.html ]
--------------------------|--------------------------------
--------------------------|--------------------------------
--------------------------|--------------------------------
--------------------------|--7--7--7--7--7--7--7--7--------
--4--4--4--4--4--4--4--4--|--5--5--5--5--5--5--5--5--------
--2--2--2--2--2--2--2--2--|--------------------------------



INTERLUDE

----------------------------|------------------------------
----------------------------|-------2-----------2----------
--------2-----------2-------|-0--0-----0--0--0-----0-------
----------------------------|------------------------------
-4--4-----4--4--4------4----|------------------------------
----------------------------|------------------------------

-----------------------------------------------------------
-----------------------------------------------------------
--9--9--9--9--9--9--9--9---9--9--9--9--9--9--9--9----------
--9--9--9--9--9--9--9--9---9--9--9--9--9--9--9--9----------
--7--7--7--7--7--7--7--7---7--7--7--7--7--7--7--7----------
-----------------------------------------------------------


----------------------------|------------------------------
----------------------------|-------2-----------2----------
--------2-----------2-------|-0--0-----0--0--0-----0-------
----------------------------|------------------------------
-4--4-----4--4--4------4----|------------------------------
----------------------------|------------------------------

-----------------------------------------------------------
-----------------------------------------------------------
--9--9--9--9--9--9--9--9---9--9--9--9--9--9--9--9----------
--9--9--9--9--9--9--9--9---9--9--9--9--9--9--9--9----------
--7--7--7--7--7--7--7--7---7--7--7--7--7--7--7--7----------
-----------------------------------------------------------


----------------------------|------------------------------
----------------------------|-------2-----------2----------
--------2-----------2-------|-0--0-----0--0--0-----0-------
----------------------------|------------------------------
-4--4-----4--4--4------4----|------------------------------
----------------------------|------------------------------


-------------------------|---------------------------------
--------2-----------2----|---------2-----------2-----------
--2--2-----2--2--2----2--|--2--2------2--2--2-----2--------
-------------------------|---------------------------------
-------------------------|---------------------------------
-------------------------|---------------------------------


----------------------------|------------------------------
----------------------------|-------2-----------2----------
--------2-----------2-------|-0--0-----0--0--0-----0-------
----------------------------|------------------------------
-4--4-----4--4--4------4----|------------------------------
----------------------------|------------------------------


OUTRO (Sort Of)

    Stu    -     pid        Worth  -  less     boy.
--------------------------|------------------|-------------
--------------------------|------------------|-------------
---------------------7--7-|-7--7------7--7---|-------------
---7---7---7---------7--7-|-7--7------7--7---|---2---------
---5---5---5---------5--5-|-5--5------5--5---|---0---------
--------------------------|------------------|-------------
Comments