Blink 182 - Story Of A Lonely Guy Chords & Tabs

 

Story Of A Lonely Guy Chords & Tabs

Blink 182 Chords & Tabs

Version: 4 Type: Bass Tab 0 ratings
1 star 2 stars 3 stars 4 stars 5 stars
comments

Story Of A Lonely Guy Bass Tab

   
--------------------------------Blink-182-----------------------------------|
--------------------------Story of a Lonely Guy-----------------------------|
Tabbed by: Spartan101
E-mail: zpro@sbcglobal.net

Intro
G:---9--9-9--9-9-9--6--6-6--2-4-6-----9--9-9--9-9-9--6--6-6--2-4-6--|
D:-77-77-7-99-9-9-44-44-4-00-0-0-0--77-77-7-99-9-9-44-44-4-00-0-0-0-|
A:------------------------------------------------------------------|
E:------------------------------------------------------------------|

Verse (x4 Play as fast as you hear the guitar palm-muting it. That's
          the main beat throughout the whole song.)
G:------------------------------------------------------------------|
D:------------------------------------------------------------------|
A:-0-0-0-0-0-0-0-0-2-2-2-2-2-2-2-2-4-4-4-4-4-4-4-4-5-5-5-5-5-5-5-5--|
E:------------------------------------------------------------------|

Pre-Chorus (x2)
G:------------------------------------------------------------------|
D:-----------------0-0-0-0-0-0-0-0-----------------2-2-2-2-2-2-2-2--|
A:-4-4-4-4-4-4-4-4-----------------0-0-0-0-0-0-0-0------------------|
E:------------------------------------------------------------------|
[ Tab from: http://www.guitartabs.cc/tabs/b/blink_182/story_of_a_lonely_guy_btab_ver_4.html ]
Chorus (x4)
G:------------------------------------------------------------------|
D:------------------------------------------------------------------|
A:-0-0-0-0-0-0-0-0-7-7-7-7-7-7-7-7-9-9-9-9-9-9-9-9-5-5-5-5-5-5-5-5--|
E:------------------------------------------------------------------|

Intro
Verse
Pre-Chorus
Chorus

Bridge
G:-----------------------------------------------------------------:
D:---------------------------------2-2-2-2-2-2-2-2-2-2-2-2-2-2-2-2-:
A:-4-4-4-4-4-4-4-4-2-2-2-2-2-2-2-2---------------------------------: x2
E:-----------------------------------------------------------------:

G:-----------------------------------------------------------------|
D:-----------------0-0-0-0-0-0-0-0-2-2-2-2-2-2-2-2-----------------|
A:-4-4-4-4-4-4-4-4---------------------------------0-0-0-0---------|
E:---------------------------------------------------------4-4-4-4-|
Continued
G:---------------------------------:
D:---------------------------------:
A:-4-4-4-4-4-4-4-4-2-2-2-2-2-2-2-2-:
E:---------------------------------:

Chorus (x5)
On the last time
G:---------------------------------------------------------------------:
D:---------------------------------------------------------------------:
A:-0-0-0-0-0-0-0-0-7-7-7-7-7-7-7-7-9-9-9-9-9-9-9-9-55-55-55-5h7hp0--5~-:
E:---------------------------------------------------------------------:
Comments