Blink 182 - Story Of A Lonely Guy Chords & Tabs

 

Story Of A Lonely Guy Chords & Tabs

Blink 182 Chords & Tabs

Version: 2 Type: Bass Tab 0 ratings
1 star 2 stars 3 stars 4 stars 5 stars
comments

Story Of A Lonely Guy Bass Tab

   
Blink 182
Song:Story of a lonely guy
Album:Take off Your Pants And Jacket
tabbed by eugenio zavala 
please rate my tabs                                                                
-------------------------------------
INTRO:Whole thing X2

G:------9---9---9-----------9----9----9----------6--6---6------
D:-7-7---7---7---7----9-9-----9---9----9----4-4---4---4---4-
A:------------------------------------------------------------------
E:-------------------------------------------------------------------

G:----2--4--6------
D:-0----------------
A:------------------
E:-------------------

VERSE: (Push it out...)

G:---------------------------------------------------
D:----------------------------------------------------
A:--------------------------44444444-55555555-X4
E:-55555555-77777777--------------------------

PRE-CHORUS:(Da,da...)
[ Tab from: http://www.guitartabs.cc/tabs/b/blink_182/story_of_a_lonely_guy_btab_ver_2.html ]
G:-----------------------------------------------------
D:-----------------------------------------------------
A:-44444444-55555555-00000000-77777777-X2  
E:------------------------------------------------------

CHORUS:(She makes me feel...)

G:---------------------------------------------------
D:----------------------------------------------------
A:---------------------------------------55555555-X4
E:-55555555-00000000-22222222-------------

INTRO AGAIN  X2

VERSE X4

PRE-CHORUS X2

CHORUS X4

INTERLUDE:

G:----------------------------------------
D:-----------------------------------------
A:-44444444--55555555--------------X2
E:----------------------------00000000-

G:-----------------------------------------
D:-----------------------------------------
A:-44444444--55555555-77777777-X1
E:------------------------------------------

G:-----------------------------------------
D:-----------------------------------------
A:-44444444--55555555--------------X1
E:-----------------------------------------

FINAL CHORUS X6 (SAME AS CHORUS ) END IN:E-5
Comments