Blink 182 - Stay Together For The Kids Chords & Tabs

 

Stay Together For The Kids Chords & Tabs

Blink 182 Chords & Tabs

Version: 6 Type: Tab 0 ratings
1 star 2 stars 3 stars 4 stars 5 stars
comments

Stay Together For The Kids Tab

Artist: Blink 182
Song: Stay Together for the kids
Album: Take Off Your Pants and Jacket
Submitted by: Andrew Hopkins (webmaster@thetabsource.com)
http://www.thetabsource.com

e------------------|------------------|------------------|-------------------|
B------------------|------------------|------------------|-------------------|
G------------------|------------------|------------------|-------------------|
D----0---7---0-4-0-|----0---7---0-4-0-|----0---4---4-5-4-|----2---4--5-4-2-0-|
A--5---5---5-------|--4---4---4-------|--2---2---2-------|--0---0------------|
E------------------|------------------|------------------|-------------------|

Verse-

e---------|---------|---------|---------|---------|---------|---------|---------|
B---------|---------|---------|---------|---------|---------|---------|---------|
G-------7-|-------7-|-------7-|-------7-|-------7-|-------7-|-------7-|-------7-|
D-------7-|-------7-|-------7-|-------7-|-------7-|-------7-|-------7-|-------7-|
A--5-5----|--5-5----|--5-5----|--5-5----|---------|---------|---------|---------|
E---------|---------|---------|---------|--7-7----|--7-7----|--7-7----|--7-7----|....
[ Tab from: http://www.guitartabs.cc/tabs/b/blink_182/stay_together_for_the_kids_tab_ver_6.html ]
e---------|---------|---------|---------|---------|---------|---------|---------|
B---------|---------|---------|---------|---------|---------|---------|---------|
G-------7-|-------7-|-------7-|-------7-|-------9-|-------9-|-------9-|-------7-|
D-------7-|-------7-|-------7-|-------7-|-------9-|-------9-|-------7-|-------7-|
A--0-0----|--0-0----|--0-0----|--0-0----|--0-0----|--0-0----|--0-0----|--0-0----|x2
E---------|---------|---------|---------|---------|---------|---------|---------|

Chorus

e------------------------------------------------------------------|
B------------------------------------------------------------------|
G------------------------------------------------------------------|
D-5-5-5-5-5-5-5-5-5-5-5-5-5-5-5-5--4-4-4-4-4-4-4-4-4-4-4-4-4-4-4-4-|
A-5-5-5-5-5-5-5-5-5-5-5-5-5-5-5-5--4-4-4-4-4-4-4-4-4-4-4-4-4-4-4-4-|
E-3-3-3-3-3-3-3-3-3-3-3-3-3-3-3-3--2-2-2-2-2-2-2-2-2-2-2-2-2-2-2-2-|

Thing at 2:13

e------------------|
B------------------|
G--------7-----7---|
D--------7-----7---|
A--5-5-5---5-5---5-|x alot of times
E------------------|

Visit: 
**********************
*www.thetabsource.com*
**********************
For Every Guitar Tab, Bass Tabs, & Drum Tab
Comments