Blink 182 - Stay Together For The Kids Chords & Tabs

 

Stay Together For The Kids Chords & Tabs

Blink 182 Chords & Tabs

Version: 1 Type: Bass Tab 0 ratings
1 star 2 stars 3 stars 4 stars 5 stars
comments

Stay Together For The Kids Bass Tab

Blink 182 rocks!!!
here's the Bass tab (the best one) for 'Stay together for the kids' which
is a really awesome song!

hope you like it!

       Intro
G |----------------------------|-----------------------------|
D |----------------------------|-----------------------------|
A |--5----5----5----5----------|--4----4----4----4-----------|
E |----------------------------|-----------------------------|

G |----------------------------|-----------------------------|
D |----------------------------|----------—------------------|
A |--2----2----2----2----------|--0----0----0----0-----------|
E |----------------------------|-----------------------------| (Repeat)
[ Tab from: http://www.guitartabs.cc/tabs/b/blink_182/stay_together_for_the_kids_btab.html ]
	Verse
G |----------------------------|-----------------------------|
D |----------------------------|-----------------------------|
A |--5--5--5--5----------------|-----------------------------|
E |---------------7--7--7--7---|--5--5--5--5--5--5--5--5-----| (Repeat) 

	Chorus (Distorted(if you want))
G |----------------------------|-----------------------------|
D |----------------------------|-----------------------------|
A |-----(16x)------------------|-----(16x)-------------------|
E |---3------------------------|---2-------------------------| (4x)

	Interlude
G |----------------------------|--------------play around ---|
D |----------------------------|--------------with this part-|
A |---5------------------------|-----5-----------------------| 
E |--------5----3----5---------|-----------5-----3-----5-----| (4x)
Comments