Blink 182 - Shut Up Chords & Tabs

 

Shut Up Chords & Tabs

Blink 182 Chords & Tabs

Version: 5 Type: Tab 0 ratings
1 star 2 stars 3 stars 4 stars 5 stars
comments

Shut Up Tab

tuning standard 

E--5-5-5-5-5-5-5-5------------------------------------------
B--X-X-X-X-X-X-X-X------------------------------------------
G--2-2-2-2-2-2-2-2------------------------------------------
D-----------------------------------------------------------
A-----------------------------------------------------------
E-----------------------------------------------------------
[ Tab from: http://www.guitartabs.cc/tabs/b/blink_182/shut_up_tab_ver_5.html ]
E-----------------------------------------------------------
B----5----5-----5-----5-------------------------------------
G--2---2-2--2--2--2--2-2------------------------------------
D-------------------0---------------------------------------
A-0-----0-----4---------------------------------------------
E-----------------------------------------------------------
let ring

thats it its easy jus listen to the song and get the timing down
Comments