Blink 182 - Shut Up Chords & Tabs

 

Shut Up Chords & Tabs

Blink 182 Chords & Tabs

Version: 10 Type: Tab 0 ratings
1 star 2 stars 3 stars 4 stars 5 stars
comments

Shut Up Tab

Intro:
|-----------------|
|-----------------|
|-2-2-2-2-2-2-2-2-|
|-----------------|
|-----------------|
|-----------------|

Intro 2:
|-----0---------0---------0--------0-------------|
|------------------------------------------------|
|---2---2-----2---2-----2---2----2---2-----------|
|------------------------------0-----------------|
|-0---------0---------4--------------------------|
|------------------------------------------------|


Verse: (Bass plays this verse) "shut the f*** up she said..."
|---|
|---|  Hit chord and fade.
|---|
|-2-|
|-2-|
|-0-|
|---|

(Play on the end of the verse and continue till it stops)
|-----0---------0---------0--------0-------------|
|------------------------------------------------|
|---2---2-----2---2-----2---2----2---2-----------|
|------------------------------0-----------------|
|-0---------0---------4--------------------------|
|------------------------------------------------|

Verse: "get the f*** up she said..."
|---|
|---|  Hit chord and fade...bass part again...
|---|
|-2-|
|-2-|
|-0-|
|---|


Chorus Thing... : "ill never ask permission from you.."
|--------------------------------------------------|
|--------------------------------------------------|
|-7-7-7-7-7------------9---7-7-7-7-7------------9--|
|-7-7-7-7-7--7-7-7-7-7-9---7-7-7-7-7--5-5-5-5-5-9--|
|-5-5-5-5-5--7-7-7-7-7-7---5-5-5-5-5--5-5-5-5-5-7--|
|------------5-5-5-5-5----------------7-7-7-7-7----|

Continued Chorus: "im not coming home..."
|-------------------------------------|
|-------------------------------------|
|-4444444444444444--7777777777777777--|
|-4444444444444444--7777777777777777--|
|-2222222222222222--5555555555555555--|
|-------------------------------------|

repeat...                            *listen for strumming pattern*
-------------------------------------|
-------------------------------------|
-4444444444444444--7777777777777777--|
-4444444444444444--7777777777777777--|
-2222222222222222--5555555555555555--|
-------------------------------------|


Verse 2: "i got too f***ed up, again.."
|-----------------------------------|
|-----------------------------------|
|------------------66666666-77777777| *keep repeating that through the whole
|-7777777777777777-66666666-77777777|  verse*
|-7777777777777777-44444444-55555555|
|-5555555555555555------------------|


Pre Chorus Thing Again: "ill never ask permission from you.."
|--------------------------------------------------|
|--------------------------------------------------|
|-7-7-7-7-7------------9---7-7-7-7-7------------9--|
|-7-7-7-7-7--7-7-7-7-7-9---7-7-7-7-7--5-5-5-5-5-9--|
|-5-5-5-5-5--7-7-7-7-7-7---5-5-5-5-5--5-5-5-5-5-7--|
|------------5-5-5-5-5----------------7-7-7-7-7----|

Chorus: "im not coming home..."
|-------------------------------------|
|-------------------------------------|
|-4444444444444444--7777777777777777--|
|-4444444444444444--7777777777777777--|
|-2222222222222222--5555555555555555--|
|-------------------------------------|

repeat...
-------------------------------------|
-------------------------------------|
-4444444444444444--7777777777777777--|
-4444444444444444--7777777777777777--|
-2222222222222222--5555555555555555--|
-------------------------------------|


Pre Interlude: "i think its time that i should leave"
|-----------------------------|
|-----------------------------|
|-99999999--11-11-11-11--7777-| *keep repeating that till it stops*
|-99999999--11-11-11-11--7777-|
|-77777777--9--9--9--9---5555-|
|-----------------------------|

[ Tab from: http://www.guitartabs.cc/tabs/b/blink_182/shut_up_tab_ver_10.html ]
***** Start of The Interlude (there's no singing in this part):
|------------------------------------------------|
|------------------------------------------------|
|14-14-14-14-14-14-14-14-14-14-14-14-14-14-14-14-|
|14-14-14-14-14-14-14-14-14-14-14-14-14-14-14-14-|
|12-12-12-12-12-12-12-12-12-12-12-12-12-12-12-12-|
|------------------------------------------------|

continued:
---------------------------|
---------------------------|
-13-13-13-13--11-11-11-11--|
-13-13-13-13--11-11-11-11--|
-11-11-11-11--9--9--9--9---|
---------------------------|

continued again...:
--------------------------------------------------|
--------------------------------------------------|
-18-18-18-18-18-18-18-18-18-18-18-18-18-18-18-18--|
-18-18-18-18-18-18-18-18-18-18-18-18-18-18-18-18--|
-16-16-16-16-16-16-16-16-16-16-16-16-16-16-16-16--|
--------------------------------------------------|

...continued...:
---------------------------|
---------------------------|
-16-16-16-16--14-14-14-14--|
-16-16-16-16--14-14-14-14--|
-14-14-14-14--12-12-12-12--|
---------------------------|

continued..:
|------------------------------------------------|
|------------------------------------------------|
|14-14-14-14-14-14-14-14-14-14-14-14-14-14-14-14-|
|14-14-14-14-14-14-14-14-14-14-14-14-14-14-14-14-|
|12-12-12-12-12-12-12-12-12-12-12-12-12-12-12-12-|
|------------------------------------------------|

continued:
---------------------------|
---------------------------|
-13-13-13-13--11-11-11-11--|
-13-13-13-13--11-11-11-11--|
-11-11-11-11--9--9--9--9---|
---------------------------|

continued:
--------------------------------------------------|
--------------------------------------------------|
-18-18-18-18-18-18-18-18-18-18-18-18-18-18-18-18--|
-18-18-18-18-18-18-18-18-18-18-18-18-18-18-18-18--|
-16-16-16-16-16-16-16-16-16-16-16-16-16-16-16-16--|
--------------------------------------------------|

---------------------------|
---------------------------|
-16-16-16-16--19-19-19-19--|
-16-16-16-16--19-19-19-19--|
-14-14-14-14--17-17-17-17--|
---------------------------|

 *****End of Interlude. :)


Chorus : "ill never ask permission from you.."
|--------------------------------------------------|
|--------------------------------------------------|
|-7-7-7-7-7------------9---7-7-7-7-7------------9--|
|-7-7-7-7-7--7-7-7-7-7-9---7-7-7-7-7--5-5-5-5-5-9--|
|-5-5-5-5-5--7-7-7-7-7-7---5-5-5-5-5--5-5-5-5-5-7--|
|------------5-5-5-5-5----------------7-7-7-7-7----|

Continued Chorus: "im not coming home..."
|-------------------------------------|
|-------------------------------------|
|-4444444444444444--7777777777777777--|
|-4444444444444444--7777777777777777--|
|-2222222222222222--5555555555555555--|
|-------------------------------------|

repeat..
-------------------------------------|
-------------------------------------|
-4444444444444444--7777777777777777--|
-4444444444444444--7777777777777777--|
-2222222222222222--5555555555555555--|
-------------------------------------|

Then end it by playing intro:
|-----0---------0---------0--------0-------------|
|------------------------------------------------|
|---2---2-----2---2-----2---2----2---2-----------|
|------------------------------0-----------------|
|-0---------0---------4--------------------------|
|------------------------------------------------|

Play till it stops and end with this:
|---|
|---|  Hit chord and fade
|---|
|-2-|
|-2-|
|-0-|
|---|

k..well its kinda long but its 100% right. play it with the song to make sure.
u can email me any comments if u want.

k so good luck

tabbed by: kirstie .g.
Comments