Blink 182 - Shut Up Chords & Tabs

 

Shut Up Chords & Tabs

Blink 182 Chords & Tabs

Version: 1 Type: Bass Tab 0 ratings
1 star 2 stars 3 stars 4 stars 5 stars
comments

Shut Up Bass Tab

   
Artist: Blink-182 
Song: Shut Up 
Album: Take Off Your Pants And Jacket 
Tabbed by: Brian Slocum, psychosatan666@yahoo.com 

Intro/Verse 
G: -------------------------------: 
D: -------------------------------: 
A: 0-0-0-0-0-0-0-0-4-4-4-4-5-5-5-5: 
E: -------------------------------: 

Chorus 

"Iíll never ask permission..." 
play 2x 
G: ------------------:  
D: ------------------: 
A: 5-5-5-5----0-0-0-0: 
E: ------------------: 
[ Tab from: http://www.guitartabs.cc/tabs/b/blink_182/shut_up_btab.html ]
"Iím not coming home..." 
play 2x 
G: ------------------------------: 
D: ---------------0-0-0-0-0-0-0-0: 
A: 2-2-2-2-2-2-2-2---------------: 
E: ------------------------------: 

Bridge 

G: -------------------------------: 
D: -------------------------------: 
A: 2-2-2-2-2-2-2-2-4-4-4-4-5-5-5-5: 
E: -------------------------------: 

Order: 
1 measure rest 
Intro/Verse x8 
2 measures rest 
Intro/Verse x6 
Chorus 
Intro/Verse x4 
Chorus 
Bridge x6 
Intro/Verse x4 
Chorus 
Intro/Verse x4 
End on A:-0-: 
Comments