Blink 182 - Seasons In The Sun Chords & Tabs

 

Seasons In The Sun Chords & Tabs

Blink 182 Chords & Tabs

Version: 4 Type: Tab 0 ratings
1 star 2 stars 3 stars 4 stars 5 stars
comments

Seasons In The Sun Tab

Submitted by: gangi the ?obacryzla?
Song Title: seasons in the sun
Artist: blink-182
File Type: .tab

Intro
E------------------------------|
B------------------------------|
G------------------------------|
D------------------------------|
A------------------------------|
E-0-1-3-0---0-1-3-0---0-1-3-2--|

strophe 1st part
E-----------------|
B-----------------|
G-----------------|
D-----------------|
A-4-4-4?-6-6-6----| just repeat
E-2-2-2--4-4-4----|
P.M. (the whole part)
[ Tab from: http://www.guitartabs.cc/tabs/b/blink_182/seasons_in_the_sun_tab_ver_4.html ]
strophe 2nd part
E--------------------------------|
B--------------------------------|
G--------------------------------|
D--------------------------------|
A-4-4-4--6-6-6-------------------| just repeat
E-2-2-2--4-4-4-------------------|
the first 2 riffs are P.M. and the 3rd just normal
(you?ll hear it)


refrain
E------------------------------|
B------------------------------|
G------------------------------|
D------------------------------|
A-4-4---6-6---3-3---4-4--------|
E-2-2---4-4---1-1---2-2--------|


bridge 1 (after the 2nd refrain)
E------------------------------|
B------------------------------|
G------------------------------|
D------------------------------|
A-7-7---9-9---6-6---7-7--------|
E-5-5---7-7---4-4---5-5--------|


Bridge 2 (after bridge 1)
E------------------------------|
B------------------------------|
G------------------------------|
D------------------------------|
A-8--8---10-10---7--7---4?4----|
E-6--6---8---8---5--5---6--6---|

Regrets to gangi99@sms.at
Comments