Blink 182 - Romeo And Rebecca Chords & Tabs

 

Romeo And Rebecca Chords & Tabs

Blink 182 Chords & Tabs

Version: 4 Type: Tab 0 ratings
1 star 2 stars 3 stars 4 stars 5 stars
comments

Romeo And Rebecca Tab

   
band:Blink 182
song:Romeo and Rebecca
album:Buddha/Chesire Cat

. = palm muted


INTRO

e]----------------------------------------------------
b]----------------------------------------------------
g]----------------------------------------------------
d]---77-7-6-----------77-7-6--------------------------  (x2)
a]-77--7---7-777777-77--7---7-55-4--------------------
e]--------------------------------5-------------------

e]----------------------------------------------------
b]----------------------------------------------------
g]----------------------------------------------------
d]-66677767-99977767-999-11-12-1111-99-77-6-7---------
a]----------------------------------------------------
e]----------------------------------------------------

e]----------------------------------------------------
b]----------------------------------------------------
g]----------------------------------------------------
d]-7p6-7p6----------777-6--------------7~~~-----------
a]----7---7-77777777-----7-55-4-55-4---7~~~letring----
e]----------------------------------5--5~~~-----------

VERSE 1

e]----------------------------------------------------
b]----------------------------------------------------
g]-22222222-------------------------------------------
d]-22222222--22222222--44444444--22222222-------------  (x4)
a]-00000000--22222222--44444444--22222222-------------
e]-----------00000000--22222222--00000000-------------
pm ........  ........  ........  ........

CHORUS

e]----------------------------------------------------
b]----------------------------------------------------
g]-55555555-------------------------------------------
d]-55555555--77777777--55555555--33333333-------------  (x2)
a]-33333333--77777777--55555555--33333333-------------
e]-----------55555555--33333333--11111111-------------

VERSE 2
[ Tab from: http://www.guitartabs.cc/tabs/b/blink_182/romeo_and_rebecca_tab_ver_4.html ]
e]----------------------------------------------------
b]----------------------------------------------------
g]-22222222-------------------------------------------
d]-22222222--22222222--44444444--22222222-------------  (x4)
a]-00000000--22222222--44444444--22222222-------------
e]-----------00000000--22222222--00000000-------------

CHORUS

e]----------------------------------------------------
b]----------------------------------------------------
g]-55555555-------------------------------------------
d]-55555555--77777777--55555555--33333333-------------  (x2)
a]-33333333--77777777--55555555--33333333-------------
e]-----------55555555--33333333--11111111-------------

BRIDGE

e]----------------------------------------------------
b]----------------------------------------------------
g]-55555--7------------99999-10--77777777-------------
d]-55555--7--55555555--99999-10--77777777-------------  (x2)
a]-33333--5--55555555--77777--8--55555555-------------
e]-----------33333333---------------------------------

RIFF A

e]----------------------------------------------------
b]----------------------------------------------------
g]-22222222--44444444--66666666-77777777--------------
d]-22222222--44444444--66666666-77777777-------------- (x4)
a]-00000000--22222222--44444444-55555555--------------
e]----------------------------------------------------

OUTRO

e]----------------------------------------------------
b]----------------------------------------------------
g]-22222222-77777777-99999999-77777777----------------  (x2)
d]-22222222-77777777-99999999-77777777----------------
a]-00000000-55555555-77777777-55555555----------------
e]----------------------------------------------------

END ON

e]----------------------------------------------------
b]----------------------------------------------------
g]----------------------------------------------------
d]-7~~~----------------------------------------------- let ring
a]-7~~~-----------------------------------------------
e]-5~~~-----------------------------------------------
Comments