Blink 182 - Roller Coaster Chords & Tabs

 

Roller Coaster Chords & Tabs

Blink 182 Chords & Tabs

Version: 8 Type: Tab 0 ratings
1 star 2 stars 3 stars 4 stars 5 stars
comments

Roller Coaster Tab

Standard tuning

This is 100% correct because I got it straight 
from the book.

e------------------------------------
B------------------------------------
G-6---6-7-6------6---6-7-6-----------
D---7-------7--7---7-------7---7--7--
A-------------0--------------0----0--
E------------------------------------

e------------------------------------
B------------------------------------
G------------------------------------
D----7----7----7----7----7----7----7-
A-0-0--0-0--0-0--0-0--0-0--0-0--0-0--
E------------------------------------

e------------------------------------
B------------------------------------
G------------------------------------
D----7----7----7----7----7----7----7-
A-0-0--0-0--0-0--0-0--0-0--5-5--5-5--
E------------------------------------

e------------------------------------
B------------------------------------
G------------------------------------
D----7----7----7----7----7-----7-----
A-5-5--5-5------------5-5--5-5-------
E-----------7-7--7-7-----------------

e------------------------------------
B------------------------------------
G------------------------------------
D------------------------------------
A-5--4-0-4-5--4-0-0-0-0-0-0--4-0-4-5-
E------------------------------------

e------------------------------------
B------------------------------------
G------------------------------------
D------------------------------------
A-0-0-0-0-0-0--4-0-4-5--4-0-0-2--4-0-
E------------------------------------

e--------------------
B--------------------
G--------------------
D--------------------
A-4-5--4-0-0-0-0-0-0-
E--------------------

e------------------
B------------------
G------------------
D-2--2-2-2-2-2-2-2-
A-0--0-0-0-0-0-0-0-
E------------------
[ Tab from: http://www.guitartabs.cc/tabs/b/blink_182/roller_coaster_tab_ver_8.html ]
e-----------------------------------------------------
B-----------------------------------------------------
G-----------------------------------------------------
D-----------------------------------------------------
A-----------------------------------------------------
E-5--5-5-5-5-5-5-5--5--5-5-5-5-5-5-5--5--5-5-5-5-5-5-5

e-------------------------------------------------
B-------------------------------------------------
G-------------------------------------------------
D-------------------------------------------------
A--------------------------------5--5-5-5-5-5-5-5-
E-0--0-0-0-0-0-0--0--0-0-0-0-0-0------------------

e------------------------------
B------------------------------
G------------------------------
D------------------------------
A-5--5-5-5-5-5-5--5--5-5-5-5-7-
E------------------------------

e--------------------------------------------------------
B--------------------------------------------------------
G--------------------------------------------------------
D-7--7-7-7-7-7-7--7-7-7-7-7-7--7--7-7-7-7-7-7-7-7--7--7-7
A-0--0-0-0-0-0-0--0-0-0-0-0-0--0--0-0-0-0-0-0-0-0--0--0-0
E--------------------------------------------------------

e--------------------------------------------------------
B--------------------------------------------------------
G--------------------------------------------------------
D-7-7-7--7--7-7-7-7-7-7--7--7-7-7-7-7-7--7--7-7-7-7-7-7--
A-0-0-0--0--0-0-0-0-0-0--5--5-5-5-5-5-5--5--5-5-5-5-5-5--
E--------------------------------------------------------

e--------------------------------
B--------------------------------
G--------------------------------
D-7--7-7-7-7-7-7--7--7-7-7-7-7-7-
A-x--x-x-x-x-x-x--5--5-5-5-5-5-5-
E-7--7-7-7-7-7-7-----------------
Comments