Blink 182 - Roller Coaster Chords & Tabs

 

Roller Coaster Chords & Tabs

Blink 182 Chords & Tabs

Version: 1 Type: Chords 0 ratings
1 star 2 stars 3 stars 4 stars 5 stars
comments

Roller Coaster Chords

   
song: roller coaster
artist: blink 182
album: Take off your pants and Jacket
tabbed by: Wes Jackson


intro

E---------------------------------------------------  play 2x

B-----2-------2---3---2---------------------------

G----------2----------------2---------2------------

D----------------------------------------------------

A---------------------------------0------------------

E-----------------------------------------------------

and then do this 2x

D----------7--------------------------------------------7-----------------------------------7-----------7---------7--------7
        play 12x 1st time and 8x 2nd time              play 4x both times
A---0--0------------------------------------------5--5------------------------------2--2--------2--2------5--5-----5--5--


and then do this thing 2x


A----4---0---4---5---4---0---0---0----4---0---4---5---4---0---0---0---4---0---4---5---4---2---0---2---4---0---4--


5---4---0---0---0


verse A, D, B, D

then do this thing 1x
[ Tab from: http://www.guitartabs.cc/tabs/b/blink_182/roller_coaster_crd.html ]
A----4---0---4---5---4---0---0---0----4---0---4---5---4---0---0---0---4---0---4---5---4---2---0---2---4---0---4--


5---4---0---0---0

then verse 2 :A, D, B, D

then this thing 2x:

D----------7--------------------------------------------7-----------------------------------7-----------7---------7--------7
        play 8x both times                                     play 4x both times
A---0--0------------------------------------------5--5------------------------------2--2--------2--2------5--5-----5--5--


interlude:

D---7-----------with wah wah effect

A---7----------

E---5-----------

and then a pick slide to verse 3:
A, D, B, D

outro:


E---------------------------------------------------  play 2x

B-----2-------2---3---2---------------------------

G----------2----------------2---------2------------

D----------------------------------------------------

A---------------------------------0------------------

E-----------------------------------------------------

TWOGUYSANDAFELLA rocks!
Comments