Blink 182 - Rock Show Live Chords & Tabs

 

Rock Show Live Chords & Tabs

Blink 182 Chords & Tabs

Version: 3 Type: Tab 0 ratings
1 star 2 stars 3 stars 4 stars 5 stars
comments

Rock Show Live Tab

This is the ABSOLUTE correct way to play the rock show by Blink. I have studied and
studied countless videos of Tom playing this, because it seems to me the intro is
always wrong. This is based on thier performace at the Pepsi Smash Mineapolis. To
download this vid go to www.blinkcentral.com. THIS INCLUDES TOM DELONGES LIVE SOLO

Intro
e|-----------------------|
b|-----------------------|
G|-----------------------|
D|-----22-22-0000--------|   PLAYED 4 TIMES QUITE FAST
A|-0000----------454545--|
E|-----------------------|


Fill:
e|-------------|
b|-------------|
g|-------------|
d|-------------|
a|--0000000----|
e|-------------|
PALM MUTED

Verse 1
|----------------------------|
|----------------------------|
|-----------7----------9-----|
|--7--------7----------9-----|
|--7--------5----------7-----|
|--5-------------------------|
   1#       2#         3#


1#
Hanging out behind the club on the weekend,
2#                    3#
Acting Stupid gettin drunk with my best friend,
1#                                             2#
I couldnt wait for the summer at the warped tour, I remember it was the
3#
first time that I saw her there!


Main Riff
e|-----------------------|
b|-----------------------|
G|-----------------------|
D|-----22-22-0000--------|   PLAYED 2 TIMES QUITE FAST
A|-0000----------454545--|
E|-----------------------|


Verse 2: Just bass

Chrous:
**HINT: Scratch the E string from the pickup up to the 5 of the 1# chord just before you 
this is how tom plays it**
|----------------|---------------------|
|----------------|---------------------|
|------------77--|-------------------6-|
|--777---44--77--|-9--7--9--7--9--7--6-|
|--777---44--55--|-9--7--9--7--9--7--4-|
|--555---22------|-7--5--7--5--7--5----|
    1#   2#  3#   4# 5# 6# 7# 8# 9# 10#

1#
Fell in love
          2#                3#
With the Girl at the rock show!
1#
She said what?
       2#                     3#
And I told her that I didnt know!
1#
Shes so cool
          2#                  3#
Gonna sneak in through her window,
    4#                          5#          6#                      7#
And everythings better when shes around, cant wait till her parent go out of

town,
8#                       9#          10#
I fell in love with the girl at the rock show!


Main Riff
e|-----------------------|
b|-----------------------|
G|-----------------------|
D|-----22-22-0000--------|   PLAYED 2 TIMES QUITE FAST
A|-0000----------454545--|
E|-----------------------|


Verse 3 just bass

[ Tab from: http://www.guitartabs.cc/tabs/b/blink_182/rock_show_live_tab_ver_3.html ]
Chrous:
**HINT: Scratch the E string from the pickup up to the 5 of the 1# chord just before you 
this is how tom plays it**
|----------------|---------------------|
|----------------|---------------------|
|------------77--|-------------------6-|
|--777---44--77--|-9--7--9--7--9--7--6-|
|--777---44--55--|-9--7--9--7--9--7--4-|
|--555---22------|-7--5--7--5--7--5----|
    1#   2#  3#   4# 5# 6# 7# 8# 9# 10#

1#
Fell in love
          2#                3#
With the Girl at the rock show!
1#
She said what?
       2#                     3#
And I told her that I didnt know!
1#
Shes so cool
          2#                  3#
Gonna sneak in through her window,
    4#                          5#          6#                      7#
And everythings better when shes around, cant wait till her parent go out of

town,
8#                       9#          10#
I fell in love with the girl at the rock show!


Bridge/Guitar Solo

|-------------------------------|
|-2-2-3--2-2-3--2-2-3-----------|
|--2------2------2----444444----| X 2
|-------------------------------|
|-------------------------------|
|-------------------------------|

Then:

|------------------------------------|
|--0-2--2----0-2--2----0-2--2--------|
|-2----2-2--2----2-2--2----2-2-44444-| X 2
|------------------------------------|
|------------------------------------|
|------------------------------------|

When mark starts singing just strum:

|---|
|---|
|---|
|-7-|
|-7-|
|-5-|


Chrous:
**HINT: Scratch the E string from the pickup up to the 5 of the 1# chord just before you 
this is how tom plays it**
|----------------|---------------------|
|----------------|---------------------|
|------------77--|-------------------6-|
|--777---44--77--|-9--7--9--7--9--7--6-|
|--777---44--55--|-9--7--9--7--9--7--4-|
|--555---22------|-7--5--7--5--7--5----|
    1#   2#  3#   4# 5# 6# 7# 8# 9# 10#

1#
Fell in love
          2#                3#
With the Girl at the rock show!
1#
She said what?
       2#                     3#
And I told her that I didnt know!
1#
Shes so cool
          2#                  3#
Gonna sneak in through her window,
    4#                          5#          6#                      7#
And everythings better when shes around, cant wait till her parent go out of

town,
8#                       9#          10#
I fell in love with the girl at the rock show!


Outro
e|-----------------------|
b|-----------------------|
G|-----------------------|
D|-----22-22-0000--------|   PLAYED 5 TIMES QUITE FAST
A|-0000----------454545--|
E|-----------------------|
Comments