Blink 182 - Rich Lips Chords & Tabs

 

Rich Lips Chords & Tabs

Blink 182 Chords & Tabs

Version: 1 Type: Tab 0 ratings
1 star 2 stars 3 stars 4 stars 5 stars
comments

Rich Lips Tab

Tabbed by: Ryan Crane
Band: Blink 182
Song: Rich Lips
Tunning: Standard 


If you really want to jam on this kick ass tab make sure you listen 
to the song before you start. The timing is the key to it all. Also make
sure you strum hella fast.


Intro: x2 and strum fast
e--------------------------------------------------
B--------------------------------------------------
G--------------------------------------------------
D-7------------7------------------------9----------
A-4 (16 times)-5 (16 times)-7-----------7 (16 times)
E---------------------------5 (16 times)-----------

Verse: x2
e|--------------------------------------------------------------------|
B|--------------------------------------------------------------------|
G|--------------7------------9----------------------------------------|
D|-7------------7------------9----------------------------------------|
A|-7------------5-(16 times)-7-(16 times)-----------------------------|
E|-5-(32 times)-------------------------------------------------------|
  'hey mum...' 'you know...' 'all along...'

Verse part 2: x2
e|--------------------------------------------------------------------|
B|--------------------------------------------------------------------|
G|--------------------------------------------------------------------|
D|-7------------7-------------------------9---------------------------|
A|-4-(16 times)-5-(16 times)-7------------7-(16 times)----------------|
E|---------------------------5-(16 times)-----------------------------|
  'you couldnt wait...'
[ Tab from: http://www.guitartabs.cc/tabs/b/blink_182/rich_lips_tab.html ]
Chorus: x2
e|--------------------------------------------------------------------|
B|--------------------------------------------------------------------|
G|--------------7-----------------------------------------------------|
D|-4------------7------------7------------2---------------------------|
A|-4------------5-(16 times)-7------------2---------------------------|
E|-2-(16 times)--------------5-(16 times)-0---------------------------|
  'nothing to loose...'

Riff: x2
e|--------------------------------------------------------------------|
B|--------------------------------------------------------------------|
G|--------------------------------------------------------------------|
D|-7-----------7-----------9------------------------------------------|
A|-4-(8 times)-5-(8 times)-7-(16 times)-------------------------------|
E|--------------------------------------------------------------------|


Bridge: x2
e|--------------------------------------------------------------------|
B|--------------------------------------------------------------------|
G|----76-4-7777-------------------------------------------------------|
D|-77-76-4-7777-------------------------------------------------------|
A|-77-54-2-5555-------------------------------------------------------|
E|-55-----------------------------------------------------------------|


Solo:
e|-5-(32 times)-------------------------------------------------------|
B|--------------------------------------------------------------------|
G|--------------------------------------------------------------------|
D|--------------------------------------------------------------------|
A|--------------------------------------------------------------------|
E|--------------------------------------------------------------------|




SONG ORDER:
Intro x2
Verse x2
verse part 2 x2
chorus x2
Intro x2
Verse x2
Verse part 2 x2
Chorus x2
Riff x2
Bridge x2
Solo
Chorus x2

ROCK ON!!!
 
Comments