Blink 182 - Reckless Abandon Chords & Tabs

 

Reckless Abandon Chords & Tabs

Blink 182 Chords & Tabs

Version: 7 Type: Tab 0 ratings
1 star 2 stars 3 stars 4 stars 5 stars
comments

Reckless Abandon Tab

I'm pretty sure this is right. Easy and fun to play.

RECKLESS ABANDON
Tabbed by: Anthony 


INTRO

e----------------------------------------------------------------------
B----------------------------------------------------------------------
G----------------------------------------------------------------------
D-----4-------4-------4------------------------------------------------
A-6-----7-6-----7-6-----7-6---6-7-4------------------------------------
E---7-------7-------7-------7------------------------------------------


VERSE

e----------------------------------------------------------------------
B----------------------------------------------------------------------
G-4-4-4-4-4-4-4-4------------------------------------------------------
D-4-4-4-4-4-4-4-4-4-4-4-4-4-4-4-4--------------------------------------
A-2-2-2-2-2-2-2-2-4-4-4-4-4-4-4-4--------------------------------------
E-----------------2-2-2-2-2-2-2-2--------------------------------------


CHORUS 1
[ Tab from: http://www.guitartabs.cc/tabs/b/blink_182/reckless_abandon_tab_ver_7.html ]
e----------------------------------------------------------------------
B----------------------------------------------------------------------
G------------------9-9-9-9-9-9-9-9-------------------------------------
D-9-9-9-9-9-9-9-9--9-9-9-9-9-9-9-9--6-6-6-6----------------------------
A-9-9-9-9-9-9-9-9--7-7-7-7-7-7-7-7--6-6-6-6----------------------------
E-7-7-7-7-7-7-7-7-------------------4-4-4-4----------------------------

CHORUS 2

e----------------------------------------------------------------------
B----------------------------------------------------------------------
G----------9-9-9-9-9-9-9-9--------------------9------------------------
D-4-4-4-4--9-9-9-9-9-9-9-9--6-6-6-6-----------9------------------------
A-4-4-4-4--7-7-7-7-7-7-7-7--6-6-6-6--4-4-4-4--7------------------------
E-2-2-2-2-------------------4-4-4-4--2-2-2-2---------------------------

Interlude

e-----------------------------------------------------------------------
B-----------------------------------------------------------------------
G-----------------------------------------------------------------------
D-9-----9--2----------------------------------------9-------------------
A-x-----x--x----------------------------------------x-------------------
E-7--0--7--4----last time through interlude at end--7-------------------



well thats it check out my other tabs for blink
(ADAMS SONG)
(STAY TOGETHER FOR THE KIDS)
(HAPPY HOLIDAYS YOU BASTARD)

tune in next week where ill be tabbing roller coaster
Comments