Blink 182 - Reckless Abandon Chords & Tabs

 

Reckless Abandon Chords & Tabs

Blink 182 Chords & Tabs

Version: 1 Type: Tab 3 ratings
1 star 2 stars 3 stars 4 stars 5 stars
comments

Reckless Abandon Tab

|-------------|
|-------------|
|-------------|  Do this x3
|-1---4-2-----|
|---2---------|
|-------------|

Then this...
[ Tab from: http://www.guitartabs.cc/tabs/b/blink_182/reckless_abandon_tab.html ]
|-------------|
|-------------|
|-------------|  
|-1---1-2-----|
|---2-----4---|
|-------------|


Please email me, I know it's an easy riff but I want to see if it was okay
Comments