Blink 182 - Reckless Abandon Chords & Tabs

 

Reckless Abandon Chords & Tabs

Blink 182 Chords & Tabs

Version: 4 Type: Bass Tab 0 ratings
1 star 2 stars 3 stars 4 stars 5 stars
comments

Reckless Abandon Bass Tab

-----------------------------------------------------------------------
			     Reckless Abandon - Blink 182
------------------------------------------------------------------------

Tabbed By : Wackstrings
e-mail: bboy_44@hotmail.com

Tuning: Standard

Alright, the best of advice i'm going to give you is to listen to the song. That way, 
can get the structure right and so on.

Intro
G|----------------------------------------------------------------------|
D|----------------------------------------------------------------------|
A|-222222---------------------------------------------------------------|
E|------  000000--444444-22222------------------------------------------|


Verses

G|---------------------------------------------------------------------|
D|---------------------------------------------------------------------|
A|-2222222222222222----------------------------------------------------|
E|-------------------22222222222222222---------------------------------|


Chorus: On and on reckless abandon....
[ Tab from: http://www.guitartabs.cc/tabs/b/blink_182/reckless_abandon_btab_ver_4.html ]
G|---------------------------------------------------------------------------|
D|---------------------------------------------------------------------------|
A|-222222222222222222--------------------------------------------------------|
E|---------------------0000000000000000-44444444-22222222-000000000000000----|

contd

G|---------------------------------------------------------------------------|
D|---------------------------------------------------------------------------|
A|---------------------------------------------------------------------------|
E|--44444444-22222222---00000000-0~------------------------------------------|

Break

G|----------------------------------------------------------------------|
D|----------------------------------------------------------------------|
A|--2~------------------------------------------------------------------|
E|------0~--4~--2~------------------------------------------------------|

Guitar break: (No bass)

Goes back to the chorus

End on

G|---------------------------------------------------------------------|
D|---------------------------------------------------------------------|
A|--2~-----------------------------------------------------------------|
E|---------------------------------------------------------------------|
Comments