Blink 182 - Reckless Abandon Chords & Tabs

 

Reckless Abandon Chords & Tabs

Blink 182 Chords & Tabs

Version: 1 Type: Bass Tab 0 ratings
1 star 2 stars 3 stars 4 stars 5 stars
comments

Reckless Abandon Bass Tab

   
Band: Blink182
Song: Reckless Abandon
Album: Take off your pants and jacket

INTRO     clean   (you can figure out the strumming pattern)
G|4---------------------|
D|4-2-6-4-2-------------|
A|2-2-6-4-2-------------|
E|--0-4-2-0-------------|

RIFF1
G|------------------|
D|1---4-2-2---------|
A|--2---------------|
E|------------------|

RIFF 2
G|-----------------|
D|1--1-2-----------|
A|--2--------------|
E|-------2h--------|

VERSE
G|4444444444444444-----------------|
D|44444444444444444444444444444444-|
A|22222222222222224444444444444444-|
E|----------------2222222222222222-|
[ Tab from: http://www.guitartabs.cc/tabs/b/blink_182/reckless_abandon_btab.html ]
CHORUS 1
G|4444444444444444-----------------|
D|44444444444444442222222222222222-|
A|22222222222222222222222222222222-|
E|----------------0000000000000000-|

CHORUS 2
G|-------------------------------------------------|
D|66666666444444442222222222222222-|
A|66666666444444442222222222222222-|
E|44444444222222220000000000000000-|

INTERLUDE
G|4h---------------------------|
D|4h-2h---6h---4h---2h---------|
A|2h-2h---6h---4h---2h---------|
E|---0h---4h---2h---0h---------|

Order
Intro
Riff 1   3x
Riff 2
Riff 1   3x
Riff 2
Verse 2x
Chorus1
Chorus2   2x
Riff1   3x
Riff2
Riff1   3x
Riff2
Verse   2x
Chorus1
Chorus2   2x
Interlude   4x
Verse 2x  (cleanly strummed)
Chorus1
Chorus2   2x
Comments