Blink 182 - Phantom Of The Opera Chords & Tabs

 

Phantom Of The Opera Chords & Tabs

Blink 182 Chords & Tabs

Version: 1 Type: Bass Tab 0 ratings
1 star 2 stars 3 stars 4 stars 5 stars
comments

Phantom Of The Opera Bass Tab

   
-------------------------------------------------------------------------------
			Phantom of the opera - Blink 182
-------------------------------------------------------------------------------

Tabbed By : xSnOoKsxoNxDaxBaSsx
e-mail:madmanual@hotmail.com

Tuning:Standard tuning EADG

intro x2
G|----------------------------------------------------------------------------|
D|--0-0-0-0-0-0-0-0-0-0-0-0-0-------------------------------------------------|
A|--------------------------------4-3-2-1-1-1-1-1-1-1-1-1-1-1-2-3-4-0---------|
E|----------------------------------------------------------------------------|



G|-------------------------------------------------------------------------------|
D|----------------------------------------0(x16)---------------------------------|
A|-3h5----3h5--------3-(x8)--5(x32)-1-(x16)------4-3-2-1-1-1-1-1-1-1-1---4-3-2-1-|
E|--------------3-(x8)-----------------------------------------------------------|

G|--------------------------------------------------------------------------------|
D|----------------------------------------------------------------3-(x16)-0-(x16)-|
A|---------3-(x8)-------------------3-(x8)------------------3-(x8)----------------|
E|-3-(x16)---------1-(x8)---3-(x16)--------1-(x8)-3-(x16)-------------------------|
[ Tab from: http://www.guitartabs.cc/tabs/b/blink_182/phantom_of_the_opera_btab.html ]
G|-0-(x16)-----------0-(x16)----------------------------------------------------|
D|----------1-(x16)-----------4-3-2-1-1-1-1-1-1-1-1-1--0-0-0-0-0-0-0------------|
A|------------------------------------------------------------------------------|
E|------------------------------------------------------------------0-0-0-0-0-0-|

G|--------------------------------------------------------------------------------|
D|--------------0-0-0-0-0-0----------------------------0-0-0-0-0-0----------------|
A|-0--0-0-0-0-0---------------------------0-0-0-0-0-0-----------------------------|
E|---------------------------0-0-0-0-0-0----------------------------0-0-0-0-0-----|

G|--------------------------------------------------------------------------------|
D|--------------------------------2-2-2-2-2-2-2-2-2-2-2-2-2-2-2--1-1-1-1-1-1-1----|
A|------------------0-0-0-0-0-0-0-------------------------------------------------|
E|--0-0-0-0-0-0-0-0---------------------------------------------------------------|

G|--------------------------------------------------------------------------------|
D|-2-2-2-2-2-2-1-0--------------------0-1-2-2-2-2-2-2-2-2-1-0---------------------|
A|-----------------4-3-3-3-3-3-3-3-3-4------------------------4-3-3-3-3-3---------|
E|--------------------------------------------------------------------------------|


| /  slide up
| \  slide down
| h  hammer-on
| p  pull-off
| ~  vibrato
| +  harmonic
| x  Mute note
===============================================================================
Comments