Blink 182 - Peggy Sue Chords & Tabs

 

Peggy Sue Chords & Tabs

Blink 182 Chords & Tabs

Version: 2 Type: Tab 0 ratings
1 star 2 stars 3 stars 4 stars 5 stars
comments

Peggy Sue Tab

Blink 182 - Peggy Sue.
 Tabbed by Mike, hawker489@aol.com.
  
Here is a different way to play Peggy Sue with 2 guitars. It will probably sound different with only one though.

Guitar 1:
e---0------------------0---------2------------
B-2---2--2-2-2-2-----2---2-----3---3--3-3-3-3-
G---------------------------------------------
D---------------------------------------------
A---------------------------------------------
E---------------------------------------------

Guitar 1 Continued
e---0-----------------------------------------
B-2---2--2-2-2-2--5-2-5-3--3p2h3p2---2--------
G----------------------------------2----------
D---------------------------------------------
A---------------------------------------------
E---------------------------------------------

(You play Guitar 1 and 2 at the same time.)
(Guitar 2 plays most of the song!)

Guitar 2
e-----------------------------------------------
B-----------------------------------------------
G-----------7-7-7-7-----------9-9--7-7----------
D--7-7-7-7--7-7-7-7--7-7-7-7--9-9--7-7--7-7-7-7-
A--7-7-7-7--5-5-5-5--7-7-7-7--7-7--5-5--7-7-7-7-
E--5-5-5-5-----------5-5-5-5------------5-5-5-5-
[ Tab from: http://www.guitartabs.cc/tabs/b/blink_182/peggy_sue_tab_ver_2.html ]
e------------------------------------------------*4
B------------------------------------------------
G---------------------------------7--------------
D-7---------------4---------------7--------------
A-7---------------4---------------5--5-5-5-5-5-5-
E-5--5-5-5-5-5-5--2--2-2-2-2-2-2-----------------

D--2-4-2-
A--2-4-2-
E--0-2-0-

e----------------------------------------*2
B----------------------------------------
G--7-7-7-7-----------7-7-7-7-------9-9---
D--7-7-7-7--7-7-7-7--7-7-7-7--7-7--9-9---
A--5-5-5-5--7-7-7-7--5-5-5-5--7-7--7-7---
E-----------5-5-5-5-----------5-5--------

e---------------------------------*4
B-2-3-5--2-3-5--5-5-5-5--3-3-3-3--
G---------------------------------

e---------------------------------------------*2
B---------------------------------------------
G--7-7-7-7-----------7-7-7-7-------9-9--------
D--7-7-7-7--7-7-7-7--7-7-7-7--7-7--9-9-----7--
A--5-5-5-5--7-7-7-7--5-5-5-5--7-7--7-7-----7--
E-----------5-5-5-5-----------5-5----------5--

Well thats it. It may be hard at first, but keep on tring. If/when you finish it E-Mail me and tell me how it worked out. 
:: Ultimate Guitar Archive :: 
http://www.ultimate-guitar.com 



Comments