Blink 182 - Peggy Sue Live Chords & Tabs

 

Peggy Sue Live Chords & Tabs

Blink 182 Chords & Tabs

Version: 2 Type: Bass Tab 0 ratings
1 star 2 stars 3 stars 4 stars 5 stars
comments

Peggy Sue Live Bass Tab

This is the solo thats in the mark, tom & travis show.

G:------------------------------------|
D:------------------------------------|
A:--------------------------5-555-7-5-|
E:-5-5-5-55-5-5-5-5-0-0-0-0-----------|
[ Tab from: http://www.guitartabs.cc/tabs/b/blink_182/peggy_sue_live_btab_ver_2.html ]
G:-------------------------------------|
D:-------------------------------------|
A:----------------5-7-7-7-7-5-5-55-7-5-|
E:-5-5-5-55-5-5-5----------------------|

Do that a shitload of times.
Tabbed by Mongo (blinktheband@hotmail.com)
Comments