Blink 182 - Peggy Sue Chords & Tabs

 

Peggy Sue Chords & Tabs

Blink 182 Chords & Tabs

Version: 3 Type: Bass Tab 0 ratings
1 star 2 stars 3 stars 4 stars 5 stars
comments

Peggy Sue Bass Tab

This tab was submitted by: Blinker27
BLinkeR37@aol.com

Here is a very very very good bass tab
to blink182s really cool song, Peggy Sue

NOTE: THE BASS SOLO ON THIS TAB IS THE 
SUPED UP COOL SOLO FROM BLINK182'S 
LIVE ALBUM: THE MARK TOM AND TRAVIS 
SHOW.

Enjoy!

Intro X2 im not totally sure how to play it
G|-------------------------------------but
D|-------------------------------------i think
A|55555555--------55555555--9999-7777--it goes
E|--------55555555---------------------like
this.
the 9's and 7's might be played a couple
for times then 4 times.

Verse X4
G|-------------------------------
D|-------------------------------
A|-----------------5xxxxxx--2-4-2
E|-5xxxxxx-2xxxxxx---------------

Chorus X2
G|-------------------------
D|-------------------------
A|-55555555--------55555555
E|---------55555555--------
[ Tab from: http://www.guitartabs.cc/tabs/b/blink_182/peggy_sue_btab_ver_3.html ]
Chorus continued...
G|-----------------
D|-----------------
A|---------77777777
E|--555555---------

Back to intro X2
Back to verse X4
Back to chorusX2


Mark Tom & Travis Show Bass solo - X4
G|-------------------------------------
D|-------------------------------------
A|------------------------5-5-5-5-5-7-5                                     
E|5-5-5-5-/7/-0-0-0-0-0----------------

Solo continued...
G|-------------------------------------
D|-------------------------------------
A|----------------------7-7-7-7-7------
E|5-5-5-5-/7/-0-0-0-0-0----------------

Solo continued again...
G|-------------------------------------
D|-------------------------------------
A|-5-5-5-5-7-5-------------------------
E|-------------------------------------

Back to chorus and your done!!!

If you have any questions or comments at all,
just email me at BLinkeR37@aol.com
Comments