Blink 182 - Pathetic Chords & Tabs

 

Pathetic Chords & Tabs

Blink 182 Chords & Tabs

Version: 6 Type: Tab 0 ratings
1 star 2 stars 3 stars 4 stars 5 stars
comments

Pathetic Tab

Intro I x3

|-0h2-------0h2-------0h2-----------------------|
|-----0-0-0-----0-0-0-----0-0-0-0h4-0h4-0h4-----|
|-----------------------------------------------|
|-----------------------------------------------|
|-----------------------------------------------|
|-----------------------------------------------|

Intro II  x1

|-0h2-------0h2-------|
|-----0-0-0-----0-0-0-|
|---------------------|
|---------------------|
|---------------------|
|---------------------|

Verse I x4
[ Tab from: http://www.guitartabs.cc/tabs/b/blink_182/pathetic_tab_ver_6.html ]
|------------------------------------------------|
|------------------------------------------------|
|-4-4-4-4-4-4-4-4-4-4--11-11-11-11-11--9-9-9-9-9-|
|-4-4-4-4-4-4-4-4-4-4--11-11-11-11-11--9-9-9-9-9-|
|-2-2-2-2-2-2-2-2-2-2--9--9--9--9--9---7-7-7-7-7-|
|------------------------------------------------|

Chorus I x2

|----------------------
|-------------------
|------------------4-4-------------------4-4--
|-6-6-6-6-6-6-6-6--4-4--4-4-4-4-4-4-4-4--4-4--2-2-2-2-2-2-2-2-2-2-2-2-2-2-2-2
|-6-6-6-6-6-6-6-6--2-2--4-4-4-4-4-4-4-4--2-2--2-2-2-2-2-2-2-2-2-2-2-2-2-2-2-2
|-4-4-4-4-4-4-4-4-------2-2-2-2-2-2-2-2-------0-0-0-0-0-0-0-0-0-0-0-0-0-0-0-0


End 

|-----|
|-----|
|-4-4-|
|-4-4-|
|-2-2-|
|-----|
Comments