Blink 182 - Pathetic Chords & Tabs

 

Pathetic Chords & Tabs

Blink 182 Chords & Tabs

Version: 4 Type: Tab 0 ratings
1 star 2 stars 3 stars 4 stars 5 stars
comments

Pathetic Tab

   
-----------------------------------------------------------------------------
			    PATHETIC- Blink 182
-----------------------------------------------------------------------------

tabbed by SkunX (skunx@ix.netcom.com) 

CHORDS

    C   G   A   Fii  F   Gii

|----------------------------|
|----------------------------|
|---5-----------10-------12--|
|---5---5---7---10---3---12--|
|---3---5---7---8----3---10--|
|-------3---5--------1-------|

Riff:

|--1--3---1--3---1--3---0---0---0--|
|-------1------1------1---1---1----|
|----------------------------------|
|----------------------------------|
|----------------------------------|
|----------------------------------|

Intro: Riff (x3 and a half)

Verse1:

  C
i know i'm pathetic i knew when she said it
  Gii                    Fii
a loser a bum's what she called me when i drove her home
C
there's no more waiting and sure no more wasting
     Gii                    Fii
i've done all i can but she still wants to be left alone
[ Tab from: http://www.guitartabs.cc/tabs/b/blink_182/pathetic_tab_ver_4.html ]
(same chords)
you got you got you got to help me out
and i'll try not to argue
no one no one no one likes a drop out
mistakes are hard to undo

CHORUS:

A          C  G
don't pull me down 
              C   F
this is where i belong 
               (i think i'm different but i'm the same & i'm wrong)
A          C  G
don't pull me down 
              C   F
this is where i belong               this is where i belong
               (i think i'm different)

Riff (x3 and a half)

Verse2:
i think its disgusting believing and trusting
if i gave a fuck there would be nothing for me to prove
although its amusing its slightly confusing
i've done all i can but her ego is still hard to move
you got you got you got to help me out
and i'll try not to argue
no one no one no one likes a drop out
mistakes are hard to undo

repeat CHORUS


Riff (x4)

A, C-G, C-F
 
repeat CHORUS

end on C

=============================================================================

Comments