Blink 182 - Pathetic Chords & Tabs

 

Pathetic Chords & Tabs

Blink 182 Chords & Tabs

Version: 1 Type: Tab 0 ratings
1 star 2 stars 3 stars 4 stars 5 stars
comments

Pathetic Tab

Pathetic 
Blink 182 
Dude Ranch
Guitar and Bass Tab
Tabbed by Alan McKerrow alan@37.com

This is the correct tabs for guitar and bass for pathetic.
It seems that all the tabs assume mark plays the same as 
tom only single frets but they play two completely different riffs.
 


GUITAR TAB

Intro

E|-0-2-----------0-2----------0-2-------------------------------
B|------0-0-0-0------0-0-0-0-----0-0-0-0-4-0-4-0-4-0------------
G|--------------------------------------------------------------
D|--------------------------------------------------------------
A|--------------------------------------------------------------
E|--------------------------------------------------------------
 
Verse

E|--------------------------------------------------------------
B|--------------------------------------------------------------
G|--4-4-4-4-4-4-4-4---------------------------------------------
D|--4-4-4-4-4-4-4-4-4-4-4-4-4-4-4-4-2-2-2-2-2-2-2-2-------------
A|--2-2-2-2-2-2-2-2-4-4-4-4-4-4-4-4-2-2-2-2-2-2-2-2-------------
E|------------------2-2-2-2-2-2-2-2-0-0-0-0-0-0-0-0---------

Chorus
[ Tab from: http://www.guitartabs.cc/tabs/b/blink_182/pathetic_tab.html ]
E|--------------------------------------------------------------
B|--------------------------------------------------------------
G|--------------------------------------------------------------
D|--6-6-6-6-6-6-6-6--4--4-4-4-4-4-4-4--4--2-2-2-2-2-2-2-2-2-2-2-
A|--6-6-6-6-6-6-6-6--2--4-4-4-4-4-4-4--2--2-2-2-2-2-2-2-2-2-2-2-
E|--4-4-4-4-4-4-4-4-----2-2-2-2-2-2-2-----0-0-0-0-0-0-0-0-0-0-0-

The Only thing you need to palm mute is the chorus the 
second set round, muting everything except those two b5 chords.


BASS TAB

Intro

G|--------------------------------------------------------------
D|--1-1-1-1-1-1-1-1-2-2-2-2-2-2-2-2-----------------------------
A|----------------------------------2-2-2-2-2-2-2-2-------------
E|--------------------------------------------------------------

Verse

G|--------------------------------------------------------------
D|-----------------4-4-4-4-4-4-4-4-2-2-2-2-2-2-2-2--------------
A|-2-2-2-2-2-2-2-2----------------------------------------------
E|--------------------------------------------------------------

Chorus

G|--------------------------------------------------------------
D|--------------------------------------------------------------
A|--------------2-------------2---------------------2-----------
E|--4-4-4-4-4-4---2-2-2-2-2-2---0-0-0-0-0-0-0-0-0-0---0-0-0-0-0-




There we go, not so hard. Any corrections, 
compliments, insults, put downs, date invitations, organ donations 
underware (even your moms)
go to alan@37.com
Comments