Blink 182 - Pathetic Chords & Tabs

 

Pathetic Chords & Tabs

Blink 182 Chords & Tabs

Version: 3 Type: Bass Tab 0 ratings
1 star 2 stars 3 stars 4 stars 5 stars
comments

Pathetic Bass Tab

from Dude Ranch
Pathetic
Words and Music by Scott Raynor, Tom De Longe and Mark Hoppus
Fast Rock = 196bpm


Intro pt.1
|-----------------|-----------------|-----------------|-----------------|
|-9-9-9-9-9-9-9-9-|-9-9-9-9-9-9-9-9-|-9-9-9-9-9-9-9-9-|-9-9-9-9-9-9-9-9-|
|-6-6-6-6-6-6-6-6-|-7-7-7-7-7-7-7-7-|-x-x-x-x-x-x-x-x-|-x-x-x-x-x-x-x-x-|
|-----------------|-----------------|-7-7-7-7-7-7-7-7-|-7-7-7-7-7-7-7-7-|

|-----------------|-----------------|-----------------|-----------------|
|-9-9-9-9-9-9-9-9-|-9-9-9-9-9-9-9-9-|-9-9-9-9-9-9-9-9-|-9-9-9-9-9-9-9-9-|
|-6-6-6-6-6-6-6-6-|-7-7-7-7-7-7-7-7-|-x-x-x-x-x-x-x-x-|-x-x-x-x-x-x-x-x-|
|-----------------|-----------------|-7-7-7-7-7-7-7-7-|-7-7-7-7-7-7-7-7-|

Intro pt.2
|-----------------|-----------------|-----------------|-----------------|
|-9-9-9-9-9-9-9-9-|-9-9-9-9-9-9-9-9-|-9-9-9-9-9-9-9-9-|-9-9-9-9-9-9-9-9-|
|-6-6-6-6-6-6-6-6-|-7-7-7-7-7-7-7-7-|-x-x-x-x-x-x-x-x-|-x-x-x-x-x-x-x-x-|
|-----------------|-----------------|-7-7-7-7-7-7-7-7-|-7-7-7-7-7-7-7-7-|

|-----------------|-----------------|
|-9-9-9-9-9-9-9-9-|-9-9-9-9-9-9-9-9-|
|-6-6-6-6-6-6-6-6-|-7-7-7-7-7-7-7-7-|
|-----------------|-----------------|

Verse
|-----------------|-----------------|-----------------|-----------------|
|-----------------|-----------------|-----------------|-----------------|
|-----------------|-----------------|-9-9---9-9-9---9-|-7-7---7-7-7---7-|
|-7-7---7-7-7---7-|-7-7---7-7-7---7-|-----------------|-----------------|
[ Tab from: http://www.guitartabs.cc/tabs/b/blink_182/pathetic_btab_ver_3.html ]
Chorus
|-----------------|-----------------|-----------------|-----------------|
|-----------------|-----------------|-----------------|-----------------|
|-----------------|---------2---2---|-----------------|---------2---2---|
|-4-4---4-4-4---4-|-4-4---4---------|-2-2---2-2-2---2-|-2-2---2---------|

|-----------------|-----------------|-----------------|-----------------|
|-----------------|-----------------|-----------------|-----------------|
|-----------------|-----------------|-----------------|-----------------|
|-0-0---0-0-0---0-|-0-0---0-0-0---0-|-0-0---0-0-0---0-|-0-0---0-0-0---0-|

Chorus 2
|-----------------|-----------------|-----------------|-----------------|
|-----------------|-----------------|-----------------|-----------------|
|-----------------|---------2---2---|-----------------|---------2---2---|
|-4---4-4-4-4-4-4-|-4-4-4-4---------|-2---2-2-2-2-2-2-|-2-2-2-2---------|

|-----------------|-----------------|-----------------|-----------------|
|-----------------|-----------------|-----------------|-----------------|
|-7-7-7-7-7-7-7-7-|-7-7-7-7-7-7-7-7-|-7-7-7-7-7-7-7-7-|-7-7-7-7-7-7-7-7-|
|-----------------|-----------------|-----------------|-----------------|

|-----------------|-----------------|-----------------|-----------------|
|-----------------|-----------------|-----------------|-----------------|
|-----------------|---------2---2---|-----------------|---------2---2---|
|-4---4-4-4-4-4-4-|-4-4-4-4---------|-2---2-2-2-2-2-2-|-2-2-2-2---------|

|-----------------|-----------------|-----------------|-----------------|
|-----------------|-----------------|-----------------|-----------------|
|-----------------|-----------------|-----------------|-----------------|
|-0-0---0-0-0---0-|-0-0---0-0-0---0-|-0-0---0-0-0---0-|-0-0---0-0-0---0-|

End Notes
|-----------------|
|-----------------|
|-2-2-2-----------|
|-----------------|


Intro pt.1
Intro pt.2
Verse  x4
Chorus  x2
Intro pt.1
Intro pt.2
Verse  x4
-change to Faster = 216bpm-
Chorus 2
Intro pt.1  x2
Chorus  x2
End Notes
Comments