Blink 182 - Online Songs Chords & Tabs

 

Online Songs Chords & Tabs

Blink 182 Chords & Tabs

Version: 7 Type: Tab 0 ratings
1 star 2 stars 3 stars 4 stars 5 stars
comments

Online Songs Tab

Song: Online Songs
By: Blinkskater182

Here goes:

 Intro: 

E----------------------------------------------------------------------------
B----------------------------------------------------------------------------
G----------------------------------------------------------------------------
D------------------------------------------------------------------7-7-7---7-
A-------4-7-4--5-5-5-----4-7-4--5-5-5-----4-7-4--5-5-5----4-7-4----5-5-5---X-
E------5-5----5-5-------5-5----5-5-------5-5----5-5------5-5---5-----------5-
       .... . .... .    .... . .... .    .... . .... .   .... ..

After Verse, Repeat Intro.

 Chorus:

E----------------------------------------------------------------------------
B----------------------------------------------------------------------------
G----------------------------------------------------------------------------
D------7-77-7-77-------------9-99-9-99--7-77-7-77----7-77-7-77---------------
A------5-55-5-55--7-77-7-77--7-77-7-77--5-55-5-55----5-55-5-55--7-77-7-77----
E-----------------5-55-5-55-------------------------------------5-55-5-55----

E------------------------------------------------
B------------------------------------------------
G------------------------------------------------
D-----9-99-9-99-----7--7----7--------------------
A-----7-77-7-77-----5--5----X--------------------
E---------------------------5--------------------

Repeat Chorus again After Verse


 Bridge:
[ Tab from: http://www.guitartabs.cc/tabs/b/blink_182/online_songs_tab_ver_7.html ]
E------------------------------------------------------------------------------
B------------------------------------------------------------------------------
G------------------------------------------------------------------------------
D--------------7--7------------------------------------7--7--------------------
A-----4--4-----5--5-----7777777--2222222------4--4-----5--5----7777777--2222222
E-----2--2--------------5555555--0000000------2--2-------------5555555--0000000


E------------------------------------------------------------------------------
B------------------------------------------------------------------------------
G------------------------------------------------------------------------------
D--------------77777777-----------------------------------77777777-------------
A----44444444--55555555--77777777--22222222-----44444444--55555555--77777777---
E----22222222------------55555555--00000000-----22222222------------55555555---

E----------------
B----------------
G----------------
D----------------
A----22222222----
E----00000000----


 Chorus:

E------------------------------------------------------------------------------
B------------------------------------------------------------------------------
G------------------------------------------------------------------------------
D-----7-77-7-77-------------9-99-9-99--7-77-7-77--7-77-7-77--------------------
A-----5-55-5-55--7-77-7-77--7-77-7-77--5-55-5-55--5-55-5-55--7-77-7-77---------
E----------------5-55-5-55-----------------------------------5-55-5-55---------

E-------------------------------------
B-------------------------------------
G-------------------------------------
D----9-99-9-99--7-77-7-77-------------
A----7-77-7-77--5-55-5-55-----44444---
E-----------------------------22222---

End On:

E-------
B-------
G-------
D---7---
A---5---
E-------
Comments