Blink 182 - Obvious Chords & Tabs

 

Obvious Chords & Tabs

Blink 182 Chords & Tabs

Version: 4 Type: Tab 1 rating
1 star 2 stars 3 stars 4 stars 5 stars
comments

Obvious Tab

   
Blink 182 
Obvious


Tune Down 1 1/2 steps

C#--------------------------------
G#--------------------------------
E --------------------------------
B ------5-----5---5-5---5-5---5---    
F#------2-----2---2-3---3-3---3---   Repeat 6 Times
C#------0-----0---0-3---3-3---3---     

C#----------------------------------------------------------------------------------------------
G#----------------------------------------------------------------------------------------------
E ----------------------------------------------------------------------------------------------
B ----------------------------------------------------------------------------------------------
F#------------------------------2-2-2-0-0-0-3-3-3-----------------------------------------------
C#------------------------------------------------0-0-0-2-2-2-2-3-3-3-3-3-3-3-3-3-3-3-3-3-3-3-3-

   (times  like  these___________)
[ Tab from: http://www.guitartabs.cc/tabs/b/blink_182/obvious_tab_ver_4.html ]
C#----------------------------------------------------------------------------------------------------- 
G#-----------------------------------------------------------------------------------------------------
E -----------------------------------------------------------------------------------------------------
B ----------------------------------------5-----5---5-5---5-5---5--------------------------------------
F#------2-2-2-0-0-0-3-3-3-----------------2-----2---2-3---3-3---3------2-2-2-0-0-0-3-3-3---------------
C#------------------------0-0-0-2-2-2-2---0-----0---0-3---3-3---3------------------------0-0-0-2-2-2-2-



C#------------------------------------------------------
G#------------------------------------------------------
E ------------5--5--5-----------------------5--5--------
B ---5--5--5--5--5--5--2--2--2----6--6--6---5--5---6--6-     Repeat 4 Times
F#---3--3--3--3--3--3--2--2--2----6--6--6---3--3---6--6-
C#---3--3--3--3--3--3--0--0--0----4--4--4---3--3---4--4-



G5                               E  D/F#

1 E + a  2 E + a  3 E + a  4 E + a  1 E + a  2 E + a  3 E + a  4 E + a

G5                               E  D/F#              C/G

1 E + a  2 E + a  3 E + a  4 E + a  1 E + a  2 E + a  3 E + a  4 E + a


Play Chords Above 3 3/4 Times



 
Comments