Blink 182 - Mutt Chords & Tabs

 

Mutt Chords & Tabs

Blink 182 Chords & Tabs

Version: 12 Type: Tab 0 ratings
1 star 2 stars 3 stars 4 stars 5 stars
comments

Mutt Tab

Artist:Blink 182
Song:MUTT

e------------------------------------------------------------    
b------------------------------------------------------------
g-------6------6-------6-------6------6------6-----6-----6---   Play 2 times
d---7-------7--------7------7-------7-----7------7-----7-----
a--------7--------7------7-------7------7------7-----7-------
e------------------------------------------------------------


       * = MUTED
e--------------------------------------------------------
b--------------------------------------------------------
g---------------------------------6------6-----7------6--
d-----7------7------7------7-----------------------------     Play 2 times
a-0*-0*--0*-0*--0*-0*--0*-0*--0*-0*--0*-0*--0*-0*--0*-0*-
e--------------------------------------------------------

[ Tab from: http://www.guitartabs.cc/tabs/b/blink_182/mutt_tab_ver_12.html ]
       .. = play a lot of times
e----------------------------------|----------------
b----------------------------------|----------------
g--2-2-2-2--2-2--------------------|--7..------9..--
d--2-2-2-2--2-2--4---4-4--2-2-2-2--|--7..------9..--
a--0-0-0-0--0-0--4---4-4--2-2-2-2--|--5..------7..--
e----------------2---2-2--0-0-0-0--|----------------

in the concert Tom plays:
    play clean 
e------------------------
b------------------------
g----------6..---6--6----
d----7..---7..---7--7----
a----------------5--4----
e----5..---7..-----------



e-------------------------------------
b-------------------------------------
g-------------------------------------
d--2*2*--4*4*--7*7*--6*6*--2*2*-------
a--0*0*--2*2*--5*5*--4*4*--0*0*-------
e-------------------------------------



e-------------------------------------
b-------------------------------------
g-2---4---7---6---2-------------------
d-2---4---7---6---2-------------------
a-0---2---5---4---0-------------------
e-------------------------------------



And thatīs all!
This song is very easy to play!
TABBED BY punksum_41@msn.com
Comments