Blink 182 - Mutt Live Chords & Tabs

 

Mutt Live Chords & Tabs

Blink 182 Chords & Tabs

Version: 1 Type: Tab 0 ratings
1 star 2 stars 3 stars 4 stars 5 stars
comments

Mutt Live Tab

Blink 182 mutt (LIve)At The BIG DAY OUT Festival
tabbed by Jeremy Antoine
Please rate this tab

intro:
e|---------------------|
B|---------------------|
G|---6-----6------6----|
D|-7-----7------7------|
A|-----7------7--------|
E|---------------------|

e|-----------------------------------------------------------|
B|-----------------------------------------------------------|
G|-----2-----2-----2h4------2h4-----6------6------2h4----2h4-|
D|--------------------------------------------2-2-----2-2----|
A|-0-0---0-0---0-0-----0-0------4-4----4-4-------------------|
E|-----------------------------------------------------------|
 PM---   ---   ---     ---      ---    ---    ---     ---
[ Tab from: http://www.guitartabs.cc/tabs/b/blink_182/mutt_live_tab.html ]
e|-------------------------------------------------|
B|-------------------------------------------------|
G|-------------------------------------------------|
D|-222222-0-4444-0-2222-0-22222-0-44444-0-222------|
A|-000000-0-4444-0-2222-0-00000-0-44444-0-222------|
E|--------0-2222-0-0000-0-------0-22222-0-000------|
cont.
e|---------------------|
B|---------------------|
G|---------------------|
D|-777777-77/99999-----|
A|-555555-55/77777-----|
E|---------------------|

e|----------------------------|
B|----------------------------|
G|----------------------------|
D|-77-7-7777-77777-777-777----|
A|-xx-x-xxxx-xxxxx-555-444----|
E|-55-5-5555-77777------------|

 Interlude (Palm Mute)
e|-----------------------|
B|-----------------------|
G|-----------------------|
D|-77---99---77-66-------|
A|-77---99---55-44-------|
E|-55---77---------------|
  outro
e|-----------------|
B|-----------------|
G|--------77-66----|
D|-22~44~-77-66----|   2x
A|-00~22~-55-44----|
E|-----------------|

end on
e|------|
B|------|
G|-2~---|
D|-2~---|
A|-0~---|
E|------|
Comments