Blink 182 - Mutt Chords & Tabs

 

Mutt Chords & Tabs

Blink 182 Chords & Tabs

Version: 2 Type: Bass Tab 0 ratings
1 star 2 stars 3 stars 4 stars 5 stars
comments

Mutt Bass Tab

   
Song: Mutt 
Artist: Blink 182 
Album: Enema of the State 
Tabbed By: Jordan Gosselin
 
H=Hammeron 
P=Pulloff 
~=let ring

Intro (play fast) 
G)------9----9----9----9----9----9----9----9-----------|
D)---77---77---77---77---77---77---77---77-------------|
A)-----------------------------------------------------|
E)-----------------------------------------------------|
 
G)-----------------------------------------------------| 
D)------7----7----7----7----7----7----7----7-----------|
A)---55---55---55---55---55---55---55---55-------------|
E)-----------------------------------------------------|

Interlude 1 
G)---------------------------------------------------------|
D)---------------------------------------------------------|
A)0000000000x3--2----4----5555555555x3---9999-7777---------| 
E)---------------------------------------------------------|

G)-----------------------------------------------------------|
D)-----------------------------------------------------------|
A)0000000000x3--2----4----5555555555---77777777-55555555-----| 
E)-----------------------------------------------------------| 

Verse "He pauses shaving.." 
G)------------------------------------------------------|
D)------------------------------------------------------| 
A)--000000000000000---2---4---99999999--77777777--------|x4
E)------------------------------------------------------|
 
Interlude 2 "Oh yeah" 
G)-----------------------------------------------------| 
D)-----------------------------------------------------| 
A)---555555555555555555555555--77777777----------------| 
E)-----------------------------------------------------|

Bridge 1"She's open waiting for more.." 
G)-----------------------------------------------|
D)-------------------------------44--------------|
A)--00--7h9p7---00--7h9p7---22--------2---55-44--|x6 
E)-----------------------------------------------|
[ Tab from: http://www.guitartabs.cc/tabs/b/blink_182/mutt_btab_ver_2.html ]
Interlude 3
G)---------------------------------------------------------|
D)---------------------------------------------------------|
A)0000000000x3--2----4----5555555555x3---9999-7777---------| 
E)---------------------------------------------------------|

G)-----------------------------------------------------------|
D)-----------------------------------------------------------|
A)0000000000x3--2----4----5555555555---77777777-55555555-----| 
E)-----------------------------------------------------------|

 Verse "she smokes..." 
G)------------------------------------------------------|
D)------------------------------------------------------| 
A)--000000000000000---2---4---99999999--77777777--------|x4
E)------------------------------------------------------|

Interlude 4 "Oh yeah" 
G)-----------------------------------------------------| 
D)-----------------------------------------------------| 
A)---555555555555555555555555--77777777----------------| 
E)-----------------------------------------------------|

Beidge 2 "She's open waiting for more.." 
G)-----------------------------------------------|
D)-------------------------------44--------------|
A)--00--7h9p7---00--7h9p7---22--------2---55-44--|x6 
E)-----------------------------------------------|
 
verse/interlude
G)-------------------------------|
D)-------------------------------| 
A)-00----22----55-44-00----------| 
E)-------------------------------|

Bridge 3
G)-----------------------------------------------|
D)-------------------------------44--------------|
A)--00--7h9p7---00--7h9p7---22--------2---55-44--|x6 
E)-----------------------------------------------|

Outro 
G)--------------------------|
D)--------------------------|
A)-0~----2~----5-4-0~-------|
E)--------------------------|

G)--------------------|
D)--------------------|
A)-2~----5-4-0~-------|
E)--------------------|

if theres any comments,
email me at sk8fire_458@hotmail.com
Comments