Blink 182 - Mothers Day Chords & Tabs

 

Mothers Day Chords & Tabs

Blink 182 Chords & Tabs

Version: 6 Type: Tab 0 ratings
1 star 2 stars 3 stars 4 stars 5 stars
comments

Mothers Day Tab

   
mothers day 


Intro & verse 
|-------------------------------------------------------------------------| 
|-------------------------------------------------------------------------| 
|-------------------------------------------------------------------------| 
|--2-2-2--2-2-2--2-2-2--2-2-2-2--2-2-2-2---5-5-5-5---4-4--3-3---| 
|--2-2-2--2-2-2--2-2-2--2-2-2-2--2-2-2-2---5-5-5-5---4-4--3-3---| 
|--0-0-0--0-0-0--0-0-0--0-0-0-0--0-0-0-0---3-3-3-3---2-2--1-1---| 

[ Tab from: http://www.guitartabs.cc/tabs/b/blink_182/mothers_day_tab_ver_6.html ]
Chorus: 
|----------3-|   
|-------3----| 
|----0-------|      then  play    Cadd9, G, D, B/G,Cadd9, G, D, etc..........  
|------------| 
|------------| 
|--0---------| 
         



Chords for the chorus: 

  Cadd9   G       D      B/G         
|--3--|--3--|--2--|---3--| 
|--3--|--3--|--3--|---3--| 
|--0--|--0--|--2--|---0--| 
|--2--|--0--|--0--|---2--| 
|--3--|--2--|-----|---2--| 
|--0--|--3--|-----|---0---| 

And thats it.. 

Comments