Blink 182 - Mms Chords & Tabs

 

Mms Chords & Tabs

Blink 182 Chords & Tabs

Version: 7 Type: Tab 0 ratings
1 star 2 stars 3 stars 4 stars 5 stars
comments

Mms Tab

   
Band: Blink 182
Song: M&Ms
Tabbed By: loves.squier
UG has a bunch of WRONG tabs for this, so I came to put in my 2 cents. This is
99% Perfect. The chords are given, no strumming patterns. Sorry this is ALMOST a
complete beginners guide, not quite. I've heard this song live and Tom plays it
different and picks notes ALOT different and at the end instead of the solo a
bunch of times he does the bridge cause he's lazy.

h = hammer on
p = pull off
/ = slide

Intro =)
e|-0-|
B|-5-|
G|---|
D|---|
A|---|
E|---|

Solo (play fast!)
e|-0-4p0-5p0-7-5-4-5p4p0-0-2p0-4p0-5-4-2-0-|
B|-----------------------------------------|
G|-----------------------------------------|
D|-----------------------------------------|
A|-----------------------------------------|
E|-----------------------------------------|

Verse 
[ Tab from: http://www.guitartabs.cc/tabs/b/blink_182/mms_tab_ver_7.html ]
e|-----------------------------------------|
B|-----------------------------------------|
G|---9--------9--------9--------9----------|
D|-----(x4)-----(x4)-6---(x4)-7-----(x4)---| (x2)
A|-7--------9------------------------------|
E|-----------------------------------------|
(On the slide to 7 you can go from where you want I personally use 5 or 6,
5 sounds the best, 6 is easier)
e|-----------------------------------------|
B|-----------------------------------------|
G|-9---------------------------------------|
D|-9-(x figure it out)---------------------| (x2)
A|-7-------------------/7-7-9-7-6----------|
E|-----------------------------------------|

Chorus
(figure the strumming and all out on your own)
e|----------|
B|----------|
G|-------4--|
D|-4-7-2-4--| (x2)
A|-4-7-2-2--|
E|-2-5-0----|

Bridge
e|----------|
B|----------|
G|---4-6----|
D|-2-4-6-7--| (x2)
A|-2-2-4-7--|
E|-0-----5--|

Long Drawn Out Strumming

e|---|
B|---|
G|-9-|
D|-9-| (x6969696969696 who knows figure it out do whatever you want)
A|-7-|
E|---|

Order: (the things that have 1x next to them are all played the way
I wrote them above with the x's I did up there)
Intro 1x =)
Solo 4x
Verse 1x
Chorus 1x
Solo 4x
Verse 1x
Chorus 1x
Bride 1x
Long Drawn Out Strumming x1
Solo x8
Comments