Blink 182 - Mms Chords & Tabs

 

Mms Chords & Tabs

Blink 182 Chords & Tabs

Version: 4 Type: Tab 0 ratings
1 star 2 stars 3 stars 4 stars 5 stars
comments

Mms Tab

Im positive this song is all correct.Enjoy.

1-0-4p0-0-5p0-0-7p0-5p0-4p0-5p4p0--2p0-0-4p0-0-5p0-4p0-2p0-0
2-----------------------------------------------------------
3-----------------------------------------------------------
4-----------------------------------------------------------
5-----------------------------------------------------------
6-----------------------------------------------------------

1-4p0-0-5p0-0-7p0-5p0-4p0-5p4p0--2p0-0-4p0-0-2p0-4p0-2p0-0--
2-----------------------------------------------------------
3-----------------------------------------------------------
4-----------------------------------------------------------
5-----------------------------------------------------------
6-----------------------------------------------------------

Also in the background of the intro, its going....
[ Tab from: http://www.guitartabs.cc/tabs/b/blink_182/mms_tab_ver_4.html ]
1-----------------------------------------------------------
2-----------------------------------------------------------
3---------4-4-----6-6-----2-2-------------------------------
4-2-2-----4-4-----6-6-----2-2-------------------------------
5-2-2-----2-2-----4-4-----0-0-------------------------------
6-0-0-------------------------------------------------------

Muted

1-----------------------------------------------------------
2-----------------------------------------------------------
3---9---9---9---9-------9---9---9---9--------9---9---9---9--
4--------------------6---6---6---6---------7---7---7---7----
5-7---7---7---7---------------------------------------------
6-----------------------------------------------------------

1-----------------------------------------------------------
2-----------------------------------------------------------
3-9-9-9-----9-9-9-9-9---------11---11---9---8---9-----------
4-9-9-9-----------------slide--------------------------x2---
5-7-7-7-----7-7-7-7-7----------9----9---7---6---7-----------
6-0-0-0-----0-0-0-0-0---------------------------------------

1-----------------------------------------------------------
2-----------------------------------------------------------
3--------2-2-----------4-4----------------------------------
4-4-4----2-2----2-2----4-4-----x4---------------------------
5-4-4----0-0----2-2----2-2----------------------------------
6-2-2-----------0-0-----------------------------------------



Comments