Blink 182 - Marlboro Man Chords & Tabs

 

Marlboro Man Chords & Tabs

Blink 182 Chords & Tabs

Version: 1 Type: Tab 0 ratings
1 star 2 stars 3 stars 4 stars 5 stars
comments

Marlboro Man Tab

   
MARLBORO MAN - Blink 182 
Album - Flyswatter 
Tabbed by GStar 
star_dragon@hotmail.com 

-------------------------------------------------------------------------------------------------------------------- 
It's not much of a song really, but I LOVE the crazy little intro. It's  
nothing like Blink at all!! So, enjoy. 
It's my first tab so don't go crazy if I made a few mistakes. Cheers. I  
tabbed this off an MP3 file so the times 
might be slightly wrong, but I'm pretty sure it's an accurate tab. 
Oh, and btw, support Australian bands. We've got some really great bands  
"downunder". Check em out. 
-------------------------------------------------------------------------------------------------------------------- 

Intro 
(Short drum solo, come in at 0:08) 

REPEAT X2 
G ----------------------------------------- 
D ----------------------------------------- 
A 1212-0--1212-0--1212-0-12-0-12-0-12-0-12- 
E ----------------------------------------- 

G -----------------------------------------5-7-5-------------------------- 
D ------5-7-5-------------5-7-57-57--0-5-7-------7-5-7--------5-7-5------- 
A 0-5-7-------7-57--0-5-7-------------------------------0-5-7-------7-57-- 
E------------------------------------------------------------------------- 

G ---------------------------------------- 
D -------------------------5-7-5---------7(let ring while guitar intro takes  
over) 
A ------5-7-5--------0-5-7-------7-5-7-0-- 
E 0-5-7-------7-5-7----------------------- 


(0:43 - The guitar intro comes now, but I always play that part on bass as  
well, if you want it, it's sorta like this) 
(Guitar part) 
(G ----------------------------------) 
(D 77-66-99-99-7-6----77-66-44-44-2-2) (just repeat that twice, then launch  
into the bass part again.) 
(A ----------------------------------) 
(E ----------------------------------) 


VERSE 1 - 0:54 
G ------------------------------------| 
D ---------------------------77777777-| Repeat 2 times 
A 00000000-55555555-77777777----------| 
E ------------------------------------| 

G ------------------------------------| 
D ---------------------------77---4-6-| Repeat 2 times 
A 00000000-55555555-77777777----7-----| 
E ------------------------------------| 

CHORUS - 1:21 
G ------------------------| 
D ------------------------| Repeat 4 times 
A 5554-000000-7774-000000-| 
E ------------------------| 
[ Tab from: http://www.guitartabs.cc/tabs/b/blink_182/marlboro_man_tab.html ]
G --------------------------------------------------------------------| 
D --------------------------------------------------------------------|  
Repeat 2 times 
A 7777777777777777-0000000000000000------------------5555555555555555-| 
E ----------------------------------2222222222222222------------------| 


VERSE 2  - 1:58 (basically the first part is the same as Verse 1 with only a  
slight change) 
G -------------------------------------| 
D ---------------------------777777h97-| Repeat 2 times 
A 00000000-55555555-77777777-----------| 
E -------------------------------------| 

G ----------------| 
D ----------------| Repeat 4 times 
A 0000-5555-77777-| 
E ----------------| 

(then back to the same thing from verse 1 again) 
G ------------------------------------| 
D ---------------------------77777777-| Repeat 2 times 
A 00000000-55555555-77777777----------| 
E ------------------------------------| 

2:25 
G  
----------------------------------------------------------------------------| 
D  
-----------------7777777777777777-9-7-676--4444444444444444-----------------|  
Repeat 2 times 
A  
7777777777777777--------------------------------------------5555555555555555| 
E  
----------------------------------------------------------------------------| 

G  
----------------------------------------------------------------------------| 
D  
-----------------7777777777777777-9-7-6676----------------------------------| 
A  
7777777777777777--------------------------------------------5555555555555555| 
E  
-------------------------------------------2222222222222222-----------------| 

G --------------------------------------------------------------------| 
D -----------------7777777777777777-4444444444444444------------------| 
A 7777777777777777-----------------------------------5555555555555555-| 
E --------------------------------------------------------------------| 


3:02 
(Tom's little guitar solo comes in here, with this playing in the  
background) 
G ---------|  
|---------------------------------------------------------------------| 
D ---------|  
|-----------------------------------4444444444444444------------------|  
Repeat 2 times 
A 00000000-|  
|7777777777777777777777777777777777------------------5555555555555555-| 
E ---------|  
|---------------------------------------------------------------------| 

3:20 
G ----------------------------------------------------------------------- 
D  
-----------------4444-6667-7777777-977777-9-7777777-9-99999-10-9-7-99-7(let  
ring) 
A 7777777777777777------------------------------------------------------- 
E ----------------------------------------------------------------------- 
Comments