Blink 182 - Man Overboard Chords & Tabs

 

Man Overboard Chords & Tabs

Blink 182 Chords & Tabs

Version: 6 Type: Tab 0 ratings
1 star 2 stars 3 stars 4 stars 5 stars
comments

Man Overboard Tab

blink 182 man overboard.
Tabbed by alvaro        alvirito@latinmail.com.
  
Song: Man overboard
Band: Blink 182
Tabbed by: EL CUCCI


Intro: Bass
--------------------------------------------------------------
--------------------------------------------------------------
--------------------------------------------------------------
--------------------------------------------------------------
----5-3-2----5-3-2-----5-3-2-3-2-3-2-------------------
-33-------33---------33------------------------------------


Intro: Guitar 
--------------------------------------------------------------
--------------------------------------------------------------
----------------------------5555555555555555---------
-55555555-77777777-5555555555555555---------
-55555555-77777777-3333333333333333---------
-33333333-55555555-----------------------------------



---------------------------------------------------------------
----------------------------------------------------------------
----------------------------------------------------------------
----------------------------------------------------------------
------0-2-3-0-2-3-2-0------0-2-3-2-0-2-3-2-0----------
-3-3---------------------0-0----------------------------------

[ Tab from: http://www.guitartabs.cc/tabs/b/blink_182/man_overboard_tab_ver_6.html ]
---------------------------------------------------------------------
-----------------------------------------------------------------------
----------------------------------------------------------------------
-5-5--------------2--------5-5---------------2-------5-----------
-----5-3-5--5-5----5-3--------5-3-5--5-5----5-3----------------
------------------------------------------------------------------------

------------------------------------------------------------------------
-------------------------------------------------------------------------
-------------------------------------------5-5-5------------------------
-----5-5-5-5-5-5-5-5-5-5---2-2-2---5-5-5------------------------
-----5-5-5-5-5-5-5-5-5-5---2-2-2---3-3-3------------------------
-----3-3-3-3-3-3-3-3-3-3---0-0-0-----------------------------------


------------------------------------------------------------------------------
-----------------------------------------------------------------------------
------------x-x-x--7-7---9-9--x-x-x--5-5--------------------------------
-----5-5---x-x-x--7-7---9-9--x-x-x--5-5---------------------------------
-----5-5---x-x-x--5-5---7-7--x-x-x--3-3---------------------------------
-----3-3---------------------------------------------------------------------

--------------------------------------------------------------
--------------------------------------------------------------
----------------------------5555555555555555---------
-55555555-77777777-5555555555555555---------
-55555555-77777777-3333333333333333---------
-33333333-55555555-----------------------------------



EL FINAL

alvirito@latinmail.com 
:: Ultimate Guitar Archive :: 
http://www.ultimate-guitar.com 

Comments