Blink 182 - Man Overboard Chords & Tabs

 

Man Overboard Chords & Tabs

Blink 182 Chords & Tabs

Version: 5 Type: Tab 0 ratings
1 star 2 stars 3 stars 4 stars 5 stars
comments

Man Overboard Tab

Blink 182, Man Overboard.
Tabbed by manars_2000@yahoo.com.
  
Man Overboard
From: Blink-182
Album: "The Tom Mark and Travis Show"
Tabs by: Juan C. Moreno
Any Questions E-mail me @ Juan_K26@hotmail.com 


Intro:
|--------------------------------------|     |
|--------------------------------------|     |
|--------------------------------------|     | 
|--------------------------------------|  %  |
|----5-3-2----5-3-2-----5-3-2-3-2-3-2--|     |
|-33-------33---------33---------------|     |  


Verse 1:
|--------------------------|     |     |------------------------|
|--------------------------|     |     |------------------------|
|-----------------5--------|     |     |-----------------5------|
|-5-------7-------5 (x16)--|  %  |  %  |-5-------7-------5 (x9)-|
|-5 (x8)--7 (x8)--3--------|     |     |-5 (x8)--7 (x8)--3------|
|-3-------5----------------|     |     |-3-------5--------------|


Riff 1:
|-----------------------|     |     |     |
|-----------------------|     |     |     |
|-----------------------|     |     |     |
|-----------------------|  %  |  %  |  %  |
|--0-2-3-2---0-2-3-2--0-|     |     |     | 
|-3---------------------|     |     |     |

Riff 2:
|-----------------------|     |     |     |
|-----------------------|     |     |     |
|-----------------------|     |     |     |
|-5---------------2-0---|  %  |  %  |  %  |
|---2-3-5-5---5-5-----3-|     |     |     |
|-----------------------|     |     |     |

Verse 2: (palm muted)
|---------------------------|     |
|---------------------------|     |
|----------7--------5-------|     |
|-5--------7 (x12)--5 (x12)-|  %  |
|-5 (x12)--5--------3-------|     |
|-3-------------------------|     |

Verse 1:
|-------------------------|     |
|-------------------------|     |
|-----------------5-------|     |
|-5-------7-------5 (x16)-|  %  |
|-5 (x8)--7 (x8)--3-------|     |
|-3-------5---------------|     |

[ Tab from: http://www.guitartabs.cc/tabs/b/blink_182/man_overboard_tab_ver_5.html ]
Riff 1:
|-----------------------|     |     |     |
|-----------------------|     |     |     |
|-----------------------|     |     |     |
|-----------------------|  %  |  %  |  %  |
|--0-2-3-2---0-2-3-2--0-|     |     |     | 
|-3---------------------|     |     |     |

Weird part in the song:
|------------------------------------------------|     |
|------------------------------------------------|     |
|-xx4---xx4---xx4---xx4---xx4---xx4---xx4---xx4--|     |
|-xx5---xx5---xx5---xx4---xx5---xx5---xx5---xx5--|  %  |
|------------------------------------------------|     |
|------------------------------------------------|     |

Verse 1:
|-------------------------|     |
|-------------------------|     |
|-----------------5-------|     |
|-5-------7-------5 (x16)-|  %  |
|-5 (x8)--7 (x8)--3-------|     |
|-3-------5---------------|     |

|---------------------------|     |     |     |
|---------------------------|     |     |     |
|--------------5-(let ring)-|     |     |     | 
|-5-(let ring)-5------------|  %  |  %  |  %  |
|-5------------3------------|     |     |     |
|-3-------------------------|     |     |     |

Riff 1:
|-----------------------|     |     |     |
|-----------------------|     |     |     |
|-----------------------|     |     |     |
|-----------------------|  %  |  %  |  %  |
|--0-2-3-2---0-2-3-2--0-|     |     |     | 
|-3---------------------|     |     |     |

Riff 2:
|-----------------------|     |     |     |
|-----------------------|     |     |     |
|-----------------------|     |     |     |
|-5---------------2-0---|  %  |  %  |  %  |
|---2-3-5-5---5-5-----3-|     |     |     |
|-----------------------|     |     |     |

Verse 1:
|-------------------------|     |     |     |
|-------------------------|     |     |     |
|-----------------5-------|     |     |     |
|-5-------7-------5 (x16)-|  %  |  %  |  %  |
|-5 (x8)--7 (x8)--3-------|     |     |     |
|-3-------5---------------|     |     |     |
 
:: Ultimate Guitar Archive :: 
http://www.ultimate-guitar.com 

Comments