Blink 182 - Man Overboard Chords & Tabs

 

Man Overboard Chords & Tabs

Blink 182 Chords & Tabs

Version: 13 Type: Tab 0 ratings
1 star 2 stars 3 stars 4 stars 5 stars
comments

Man Overboard Tab

Blink 182
Man Overboard (solo riffs)
Tabbed by James Low whatisaturnip@yahoo.co.uk

This ain't the whole song, i ain't got the chords yet,
but i got the two solo riffs that appear throughout
the song, and mine sounds more like the CD than the others here!

Send me verbal abuse, corrections, requests, or anything really!

Play this riff a few times
[ Tab from: http://www.guitartabs.cc/tabs/b/blink_182/man_overboard_tab_ver_13.html ]
E---------------------------------------------------------------|
B---------------------------------------------------------------|
G---------------------------------------------------------------|
D---------------------------------------------------------------|
A---0-2-3-2---0-2-3-2-0----0-2-3-2--0-2-3-2-0-------------------|
E-3----------------------0--------------------------------------|

Then play this riff a few times

E---------------------------------------------------------------|
B---------------------------------------------------------------|
G---------------------------------------------------------------|
D-5-------------2-----------------------------------------------|
A---2-3-5---5-5---5-3-------------------------------------------|
E---------------------------------------------------------------|

The timing in this probably ain't any good, but the notes are all
here, if anyone is feeling generous, they can send me the chords!
Comments