Blink 182 - Man Overboard Chords & Tabs

 

Man Overboard Chords & Tabs

Blink 182 Chords & Tabs

Version: 12 Type: Tab 0 ratings
1 star 2 stars 3 stars 4 stars 5 stars
comments

Man Overboard Tab

   
Posted by Sheeppig

Band: Blink 182
Song: Man Overboard (Mark, Tom and Travis show)

This version is 99% correct the only problem is the timing in some parts as im doing this at school without any music or my guitar.  There are mistakes so forgive me.

Intro

E-----------------------------------------------
B-----------------------------------------------
G-----------------------------------------------   x2
D-----------------------------------------------
A--------5-3-2-------5-3-2--------5-3-2-3-2-3-2
E333---------333----------333------------------
This is actually just a bass part but if you want to play it keep picking the strings constantly.


    So sorry               Its over
E-------------------------------------------
B-------------------------------------------
G------------------(2)-------------5--------
D5----------------(2)-------------5--------
A5let ring-------(0)-------------3--------
E3-----------------------------------------
Also play this when Tom starts singing

After soon well all be gone
E----------------------------
B----------------------------
G----------------------------      x 4
D----------------------------
A----2-3-2---2---3---2---0---
E-3--------------------------

E----------------------------
B----------------------------
G----------------------------     x  4
D5--------------------------
A-----5-7-5----5--7---5---3---
E----------------------------

No hammering on and pulling off, trust me.

Verse

E------------------------------------
B------------------------------------
G------------------------------------
D---------------------------55555555-
A-5555555555555555-22222222-33333333-
E-3333333333333333-00000000----------
Palm muted___________________________

This part has up and down strokes or you can play super fast down strokes.

Chorus

You can lean on me     For only so long
E--------------------------------
B--------------------------------
G---------------------77777777---
D-55555555------------77777777---
A-55555555------------55555555---
E-33333333-----------------------





   Bring your friends out   and watch your.....
E------------------------------------
B------------------------------------
G-------------------------55555555---
D-2222222-----------------55555555---
A-2222222-----------------33333333---
E-0000000----------------------------
[ Tab from: http://www.guitartabs.cc/tabs/b/blink_182/man_overboard_tab_ver_12.html ]
Play that for the rest of the chorus

Then play the third quarter of the intro (the 3-232 part)

Verse

E------------------------
B------------------------
G------------------------
D----5----5----5----5----
A----5----5----5----5----
E33---33---33---33------
For the whole verse

Then chorus

Then play
         So sorry            Its over
E---------------------------------------
B---------------------------------------
G---------------------(2)-----------5---
D5-------------------(2)-----------5---
A5let ring----------(0)-----------3---
E3-------------------------------------





After soon well all be gone
E----------------------------
B----------------------------
G----------------------------      x 4
D----------------------------
A----2-3-2---2---3---2---0---
E-3--------------------------

E-------------------------------
B-------------------------------
G-------------------------------     x  4
D5-----------------------------
A-----5-7-5----5--7---5---3----
E-------------------------------


Outro
    Man on a mission           Cant say i miss him around
E----------------------------------------
B----------------------------------------
G--------------------5555555555555555----
D5555555555555555---5555555555555555----
A5555555555555555---3333333333333333----
E3333333333333333-----------------------

    Insider information            Hand in your resignation
E------------------------------------------
B------------------------------------------
G---------------------5555555555555555-----
D5555555577777777---5555555555555555-----
A5555555577777777---3333333333333333-----
E3333333355555555------------------------





Loss of a good friend     Lost all the intentions i found
E--------------------------------------
B--------------------------------------
G--------------------5555555555555555--
D5555555555555555---5555555555555555--
A5555555555555555---3333333333333333--
E3333333333333333---------------------

      Live across the nation  yeah later see you  around
E----------------------------------------
B----------------------------------------
G---------------------5555555555555555---
D5555555577777777---5555555555555555---
A5555555577777777---3333333333333333---
E3333333355555555----------------------

End off with a D5

Any comments(only good), corrections or praises please send to sits05@stdavids.co.za.
Comments