Blink 182 - Man Overboard Complete Chords & Tabs

 

Man Overboard Complete Chords & Tabs

Blink 182 Chords & Tabs

Version: 1 Type: Tab 1 rating
1 star 2 stars 3 stars 4 stars 5 stars
comments

Man Overboard Complete Tab

   
standard tuning
p=pull off
h=hammer
*=palm mute
~=ring
/=slide foward
intro   -   this  first bit of the intro is played on bass but i have tabbed it for guitar
|------------------------------------------------------------------------|
|------------------------------------------------------------------------|
|------------------------------------------------------------------------|     X2
|------------------------------------------------------------------------|
|------5---3---2-------5---3---2-------5---3--2--3---2--3--2-------------|
|--33----3---3---3-3-3---3---3---3-3-3---3---3--3--3--3--3---3-3-3-------|

then the guitar kicks in

|---------------------------------------------------|----------at the end of the 4th time play one
|---------------------------------------------------|------------------strum upwards hard
|---------------------------5-5-5-5-5-5-5-5---------|--------5----------------------|
|-----5-5-5-5----7-7-7-7----5-5-5-5-5-5-5-5---(X4)--|--------5----------------------|
|-----5-5-5-5----7-7-7-7----3-3-3-3-3-3-3-3---------|--------7----------------------|
|-----3-3-3-3----5-5-5-5----------------------------|-------------------------------|


pre – verse
prt1
|------------------------------------------------------------------------------|
|------------------------------------------------------------------------------|
|------------------------------------------------------------------------------|
|------------------------------------------------------------------------------|
|---------2h3p2~------2h3p2---0-----------2h3p2~--------2h3p2--0-------X2------|
|----2h3------------3-----------------0h3------------3-------------------------|

prt2
|-------------------------------------------------|
|-------------------------------------------------|
|-----------0-------------------------------------|
|--------5-------------0~---0-0h2-0----(X4)-------|
|---------------2h3------------------3------------|
|-------------------------------------------------|
[ Tab from: http://www.guitartabs.cc/tabs/b/blink_182/man_overboard_complete_tab.html ]
verse
play these palm mutes fast
|--------------------------------------|
|--------------------------------------|
|----------------------------5---------|
|----5-----------2-----------5---(X8)--|  X2
|----5---(X16)---2---(X8)----3---------|
|----3-----------0---------------------|
     *           *           *
chorus
|----------------------------------------------------------------------|
|----------------------------------------------------------------------|
|---------------7-7-7-7-7-7-----------------------5-5-5-5-5-5----------|
|-----5-5-5-5---7-7-7-7-7-7------x-x--2-2-2-2-----5-5-5-5-5-5----------|  X2
|-----5-5-5-5---5-5-5-5-5-5------x-x--2-2-2-2-----3-3-3-3-3-3----------|
|-----3-3-3-3--------------------x-x--0-0-0-0--------------------------|

play the first part of the pre – verse

tip - keep your 4th finger on the fifth fret on the d string
2nd verse
|------------------------------------------------|
|------------------------------------------------|
|------------------------------------------------|X2  Play this in the same timing as the 1st verse
|-----5-5--5---------2-2--5---------5-5--5-------|           timing as the 1st verse
|-----5-5-----(X4)---0-0------(X2)--3-3----------|
|-----3-3------------0-0-------------------------|
      *  *           * *            * *

play chorus

|------------------------|						|-------------|
|------------------------|						|-------------|
|------------------5-----|						|-----7-------|
|-----5----/-7-----5-~---|   X4   on 4th time funish with final strum on|-----7--~----|
|-----5-~--/-7-~---3-----|						|-----5-------|
|-----3----/-5-----------|						|-------------|


play whole pre – verse


ending
|--------------------------------------------------------------------------------------------|
|--------------------------------------------------------------------------------------------|
|---------5-----------------------5---------------5-----------------------5-------7----------|
|-5-------5-(X8)--5-------7-------5-(X4)--5-------5-(X8)--5-------7-------5-(X4)--7-(X4)--5-~|
|-5-(X8)--3-------5-(X4)--7-(X4)--3-------5-(X8)--3-------5-(X4)--7-(X4)--3-------5-------5-~|
|-3---------------3-------5---------------3---------------3-------5-----------------------3-~|


I'm not going to be one of those tools that say it is 100% correct but i played it with 
the song and it sounded fine to me

thats it, cheers
Comments