Blink 182 - Man Overboard Chords & Tabs

 

Man Overboard Chords & Tabs

Blink 182 Chords & Tabs

Version: 6 Type: Bass Tab 0 ratings
1 star 2 stars 3 stars 4 stars 5 stars
comments

Man Overboard Bass Tab

Band: Blink 182
Song: Man Overboard
Instrument: Bass Guitar

Intro (x2)
G|---7--5-4----7--5-4-----7-5--4-5--4-5--4---7---|
D|-55-5--5-5-55-5--5-55--5-5--5-5--5-5--5-5--5---|
A|-----------------------------------------------|
E|-----------------------------------------------|

Verse (x2)
G|-----------------------------------------------|
D|-----------------------------------------------|
A|---------------------------------3333-3355-----|
E|-3333 3333--3333-3355--0000-0000---------------|
[ Tab from: http://www.guitartabs.cc/tabs/b/blink_182/man_overboard_btab_ver_6.html ]
Tag (x2)
G|-----------------------------------------------|
D|-5555-5555-------------------------------------|
A|------------5555-5555-7777-7777-3333-3333------|
E|-----------------------------------------------|

Breakdown @ 1:41
G|-----------------------------------------------|
D|-5555-5555-7777-7777-10-10-10-10-10-10-10-10---|
A|-----------------------------------------------|
E|-----------------------------------------------|

G|-----------------------------------------------|
D|-5555-5555-7777-7777---------------------------|
A|----------------------3333-3333----------------|
E|-----------------------------------------------|

Outro
G|---7--5-4----7--5-4-----7-5--4-5--4-5--4-5-----|
D|-55-5--5-5-55-5--5-55--5-5--5-5--5-5--5-5--5-55|
A|-----------------------------------------------|
E|-----------------------------------------------|

G|-7--|
D|-5--|
A|----|
E|----|
Comments