Blink 182 - Josie Chords & Tabs

 

Josie Chords & Tabs

Blink 182 Chords & Tabs

Version: 4 Type: Tab 0 ratings
1 star 2 stars 3 stars 4 stars 5 stars
comments

Josie Tab

Blink 182
Dude Ranch
Josie

Intro:
e-------|
B-------|
G---4---| Listen to the song
D-------| for exact number of 
A---2---| times.
E-------|

Verse:
e------------------------------------|
B------------------------------------|
G--4---------------------------------|
D--4-X4---x--4-----x--2--------------|
A--2------x--4-x4--x--2-x8-----------|
E---------x--2-----x--0--------------|

On second time through play the open E 
power chord palm muted.
[ Tab from: http://www.guitartabs.cc/tabs/b/blink_182/josie_tab_ver_4.html ]
Bridge:
e--------------------------------------|
B--------------------------------------|
G--------------4------------2----------|
D-4-----2------4-x16--4-----2-x8--2----|
A-4-x8--2--x8--2------4-x8--4-----2-x16|
E-2-----0-------------2-----------0----|

Chorus:
e-------------------------------|
B-------------------------------|
G--4----------------------------|
D--4-x8--4-----2-----2-----4----|
A--2-----4-x8--2-x8--2-x4--4-x4-|
E--------2-----0-----4-----2----|

Listen to song for number of times.

Interlude (during Bass Solo):
e-------|
B-------|
G--4----|Listen to the song
D-------|for exact number of 
A--2----|times.
E-------|

Most definatley one of the top ten Blink songs.
Very easy to play.
100% correct!
Comments