Blink 182 - Josie Chords & Tabs

 

Josie Chords & Tabs

Blink 182 Chords & Tabs

Version: 1 Type: Tab 0 ratings
1 star 2 stars 3 stars 4 stars 5 stars
comments

Josie Tab

Josie
Blink 182

Intro:    Verse:  yeah my girlfriend...home...drive..........doesn't
e|-------I------------------------------------------------------------|
B|-------I------------------------------------------------------------|
G|--4----I-----------------------4-------------------------------4----|
D|--2----I-----------------------4---------4-------2-------------4----|
A|--2----I-----------------------2---------4-------2-------------2----|
E|-------I---------------------------------2-------0------------------|
   
  ...jealous...hang...laughs...jokes...does...mexican...sombreros  
e|--------------------------------------------------------------------|
B|--------------------------------------------------------------------|
G|-----6--------9--------4-----------------------4--------6-----------|
D|-----6--------9--------4-------4-------2-------4--------6-----------|
A|-----4--------7--------2-------4-------2-------2--------4-----------|
E|-------------------------------2-------0----------------------------|
                                    Palm mute                           
 ...because  Fig.1: yeah just because   
e|----------I-----------------------------I---------------------------|
B|----------I-----------------------------I---------------------------|
G|----9-----I-------------------4---------I---------------------------|
D|----9-----I-------------------4---------I---------------------------|
A|----7-----I-------------------2---------I---------------------------|
E|----------I-----------------------------I---------------------------|
[ Tab from: http://www.guitartabs.cc/tabs/b/blink_182/josie_tab.html ]
  Pre Chorus: and when...up...down...up...still...see her pretty face..
e|--------------------------------------------------------------------|
B|--------------------------------------------------------------------|
G|------------------------------4-----------6-------------------------|
D|-----------------4------2-----4-----4-----6------2------------------|
A|-----------------4------2-----2-----4-----4------2------------------|
E|-----------------2------0-----------2------------0------------------|

  Chorus: I know that everything...know...know...everything's gonna be 
e|--------------------------------------------------------------------|
B|--------------------------------------------------------------------|
G|--------4-----------------------------------------------------------|
D|--------4------------------------4--------2-----6-----------4-------|
A|--------2------------------------4--------2-----6-----------4-------|
E|---------------------------------2--------0-----4-----------2-------|

       Fig.2:  ...fine
e|----I----------------I----------------------------------------------|
B|----I----------------I----------------------------------------------|
G|----I-------------4--I----------------------------------------------|
D|----I-------------4--I----------------------------------------------|
A|----I-------------2--I----------------------------------------------|
E|----I----------------I----------------------------------------------|

  Intro x 12
  Verse 
  Fig. 1
  Verse
  Pre Chorus                 P.S.  This IS the right way to play
  Chorus x 2                       this song.
  Fig. 2 
  Verse
  Fig. 1
  Verse
  Pre Chorus
  Chrous x 4
  Fig. 2
  Intro x 8
  Chorus x 4
  Fig. 2

Comments