Blink 182 - Josie Chords & Tabs

 

Josie Chords & Tabs

Blink 182 Chords & Tabs

Version: 4 Type: Bass Tab 0 ratings
1 star 2 stars 3 stars 4 stars 5 stars
comments

Josie Bass Tab

   
This is tab is 100% correct unlike the other "Josie" tabs on this website.
The rhythym of the Intro is hard to tab, so listen to the CD for it. Very simple,
just repetitive.

INTRO
G|-2-------2-------2-------2-------44444444444444442222222222222222|
D|---------------------------------44444444666666664444444444444444|
A|-----------------------------------------------------------------|
E|-----------------------------------------------------------------|

G|44444444444444442222222222222222|
D|44444444666666664444444444444444|
A|--------------------------------|
E|--------------------------------|

G|44444444444444448888888822222222|
D|44444444666666666666666644444444|
A|--------------------------------|
E|--------------------------------|

G|4444444444444444222222222--------|
D|4444444466666666444444444--------|
A|---------------------------------|
E|---------------------------------|

VERSE
G|---------------------------------------------------------------|
D|---------------------------------------------------------------|
A|22222222------------------------2222222244444444777777777777777|
E|--------222222220000000000000000-------------------------------|

G|-------------------------------------------------------------------------------|
D|-------------------------------------------------------------------------------|
A|22222222------------------------222222224444444477777777777777722222222--------|
E|--------22222222-00-000-000-000------------------------------------------------|

G|---------------------------------------------------------------|
D|---------------------------------------------------------------|
A|22222222------------------------2222222244444444777777777777777|
E|--------222222220000000000000000-------------------------------|

G|---------------------------------------------------------------|
D|---------------------------------------------------------------|
A|22222222------------------------2222222244444444777777777777777|
E|--------22222222-00-000-000-000--------------------------------|

G|----------------------------------------------------------------|
D|----------------------------------------------------------------|
A|--------------------------------22222222222222222222222222222222|
E|22222222222222220000000000000000--------------------------------|

G|----------------------------------------------------------------|
D|----------------------------------------------------------------|
A|----------------4444444444444444--------------------------------|
E|2222222222222222----------------00000000000000000000000000000000|

CHORUS
G|--------------------------------|
D|--------------------------------|
A|22222222------------------------|
E|--------222222220000000044442222|

G|-------------------------------------------------|
D|-------------------------------------------------|
A|22222222------------------------222222222--------|
E|--------222222220000000044442222-----------------|
[ Tab from: http://www.guitartabs.cc/tabs/b/blink_182/josie_btab_ver_4.html ]
VERSE
G|---------------------------------------------------------------|
D|---------------------------------------------------------------|
A|22222222------------------------2222222244444444777777777777777|
E|--------222222220000000000000000-------------------------------|

G|---------------------------------------------------------------|
D|---------------------------------------------------------------|
A|22222222------------------------2222222244444444777777777777777|
E|--------22222222-00-000-000-000--------------------------------|

G|----------------------------------------------------------------|
D|----------------------------------------------------------------|
A|--------------------------------22222222222222222222222222222222|
E|22222222222222220000000000000000--------------------------------|

G|----------------------------------------------------------------|
D|----------------------------------------------------------------|
A|----------------4444444444444444--------------------------------|
E|2222222222222222----------------00000000000000000000000000000000|

CHORUS
G|--------------------------------|
D|--------------------------------|
A|22222222------------------------|
E|--------222222220000000044442222|

G|--------------------------------|
D|--------------------------------|
A|22222222------------------------|
E|--------222222220000000044442222|

G|--------------------------------|
D|--------------------------------|
A|22222222------------------------|
E|--------222222220000000044442222|

G|-------------------------------------------------|
D|-------------------------------------------------|
A|22222222------------------------222222222--------|
E|--------222222220000000044442222-----------------|

BRIDGE
G|44444444444444442222222222222222|
D|44444444666666664444444444444444|
A|--------------------------------|
E|--------------------------------|

G|44444444444444442222222222222222|
D|44444444666666664444444444444444|
A|--------------------------------|
E|--------------------------------|

G|44444444444444448888888822222222|
D|44444444666666666666666644444444|
A|--------------------------------|
E|--------------------------------|

G|4444444444444444222222222--------|
D|4444444466666666444444444--------|
A|---------------------------------|
E|---------------------------------|

CHORUS
G|--------------------------------|
D|--------------------------------|
A|22222222------------------------|
E|--------222222220000000044442222|

G|--------------------------------|
D|--------------------------------|
A|22222222------------------------|
E|--------222222220000000044442222|

G|--------------------------------|
D|--------------------------------|
A|22222222------------------------|
E|--------222222220000000044442222|

G|-----------------------------------------|
D|-----------------------------------------|
A|22222222------------------------222222222|
E|--------222222220000000044442222---------|

That's all of it. Repeatetive and easy. I'm 99.999% sure that this tab is perfect
but there may be a few mistakes somewhere.
Comments