Blink 182 - Im Lost Without You Chords & Tabs

 

Im Lost Without You Chords & Tabs

Blink 182 Chords & Tabs

Version: 2 Type: Tab 0 ratings
1 star 2 stars 3 stars 4 stars 5 stars
comments

Im Lost Without You Tab

   
Chords used:
I don't know the proper name for the F# chord but I guess D/F#? F# is easier to follow anyways


   G F# Em7
e|(3)---(0)------------------------------------------------------------------|
B|-3--3--3-------------------------------------------------------------------|
G|-0--2--0-------------------------------------------------------------------|
D|-0--0--2-------------------------------------------------------------------|
A|-2--x--2-------------------------------------------------------------------|
E|-3--2--0-------------------------------------------------------------------|

Piano riff (fingerpicked over verse 1 and 2)

     G          F#        Em7         F#
e|---------------------------------------------------------------------------|
B|---3----------3----------3----------3--------------------------------------|
G|-----0---0------2---2------0---0------2---2--0-----------------------------|
D|-------0----------0----------2----------0----------------------------------|
A|---------------------------------------------------------------------------|
E|---3----------2----------0----------2--------------------------------------|


Verse 1
[ Tab from: http://www.guitartabs.cc/tabs/b/blink_182/im_lost_without_you_tab_ver_2.html ]
G              F#          Em7        F#
I swear that I can go on forever again
G             F#               Em7            F#
Please let me know that my one bad day will end
G          F#           Em7             F#
I will go down as your lover, your friend
G            F#             Em7            F# 
Give me your lips and with one kiss we begin



Chorus - OK so there are 2 ways to play this, either G/F#/Em7/F#, or G,F#,G,F#, 
I think the first one sounds better but the latter one is more in line with the song, 
I've tabbed G/F#/Em7/F# but just play whatever sounds good for you

G                           F#
Are you afraid of being alone
      Em7            F#
Cause I am, I'm lost without you
G                           F#
Are you afraid of leaving tonight
       Em7          F#           G (strum once let ring)
Cause I am, I'm lost without you


Verse 2

G              F#            Em7           F#
I'll leave my room open till sunrise for you
G             F#             Em7         F#
I'll keep my eyes patiently focused on you
G             F#             Em7                 F#
Where are you now I can hear footsteps I'm dreaming
G            F#               Em7                 F#
And if you will, keep me from waking to believe this


Chorus

G                           F#
Are you afraid of being alone
      Em7            F#
Cause I am, I'm lost without you
G                           F#
Are you afraid of leaving tonight
       Em7          F#           
Cause I am, I'm lost without you


I don't have the break tabbed but whats tabbed here sounds OK to me. 
The second verse is not what Tom is playing but I think it is OK to play, the outro is the same chord progression. 
This is my first tab so please leave comments, or email sam_8orbetter@hotmail.co.u
Comments