Blink 182 - Im Lost Without You Chords & Tabs

 

Im Lost Without You Chords & Tabs

Blink 182 Chords & Tabs

Version: 2 Type: Bass Tab 0 ratings
1 star 2 stars 3 stars 4 stars 5 stars
comments

Im Lost Without You Bass Tab

I'm Lost Without You
By: Blink 182

Intro - 0:36
G|------------------------------------------------------|
D|------------------------------------------------------|
A|------------------------------------------------------|
E|7/1414141414141414\1212121212121212\55555555/77777777/|

Intro (continued)
G|----------------------------------------------|
D|----------------------------------------------|
A|----------------------------------------------|
E|/1414141414141414\1212121212121212\55555555-0~|

Verse - 1:01
G|--------------------------------------------------|
D|--------------------------------------------------|
A|-4-0-4-0-----------------4-0-4-0------------------| play 3 times
E|---------00h--44-44-444-5----------00h-77-77-777-5| (hold note on
                                                      fourth time)
[ Tab from: http://www.guitartabs.cc/tabs/b/blink_182/im_lost_without_you_btab_ver_2.html ]
Chorus - 1:28
G|---------------------------------------------------|
D|---------------------------------------------------|
A|---------------------------------------------------|play 4 times
E|1414141414141414-1212121212121212-55555555-77777777|(hold note on
                                                      fourth time)

Verse - 2:10
G|--------------------------------------------------|
D|--------------------------------------------------|
A|-4-0-4-0-----------------4-0-4-0------------------| play 9 times
E|---------00h--44-44-444-5----------00h-77-77-777-5| (hold note on
                                                      fourth time)

Bridge - 2:59
G|--------------------------|
D|--------------------------|
A|--------------------------|
E|-5~-4~-2~-0~-5~-7~-9~-10~-|
 (i'm pretty sure this might be a piano playing
  so if you don't have one handy here are the notes)

Verse
G|--------------------------------------------------|
D|--------------------------------------------------|
A|-4-0-4-0-----------------4-0-4-0------------------| play until drum solo
E|---------00h--44-44-444-5----------00h-77-77-777-5|
Comments