Blink 182 - I Wont Be Home For Christmas Chords & Tabs

 

I Wont Be Home For Christmas Chords & Tabs

Blink 182 Chords & Tabs

Version: 4 Type: Tab 0 ratings
1 star 2 stars 3 stars 4 stars 5 stars
comments

I Wont Be Home For Christmas Tab

Blink 182
I Won't Be Home For Christmas

OK, I've had enough with these
shitty tabs for this song. It's
not a hard song. Here is the real
intro, but I'm not gonna do the 
rest of the song because the other
has the right verse.
[ Tab from: http://www.guitartabs.cc/tabs/b/blink_182/i_wont_be_home_for_christmas_tab_ver_4.html ]
E|----------------------------------------------------
B|----------------------------------------------------
G|-0-0-4-0-5-0-4-0---0-4-0---0-4-0----0-4-0-5-0-4-2-0-
D|------------------2-------2-------------------------
A|----------------------------------3-----------------
E|----------------------------------------------------

E|----------------------------
B|----------------------------
G|---0-4-0---0-4-0------------
D|-0-------0------------------
A|----------------------------
E|----------------------------

Yes! That's it.  If you actually listen to the song,
you will find this tab is more correct! 
Comments